Cifra Club

Honeymoon Suite

Lacuna Coil

Cifrado: Principal (guitarra y guitarra eléctrica)
tono: D
Tuning : E A D G B E    


  Intro and Andrea's Verse:

  Gtr. 1 clean tone
|--------7-----------------------|
|------0---0-----------8---8-----|
|----9-------9-------10--9---10--|
|--7-----------7---7-----------7-|
|0---------------0---------------|
|--------------------------------|

 
|--------7-----------------------|
|------0---0---------8-10--108---|
|----9-------9-----------9-------|
|--7-----------7---7-----------7-|
|0---------------0---------------|
|--------------------------------|

  Gtr. 2  w/ distortion  
|--------------------------------|
|--------------------------------|
|--------------------------------|
|----------------7---------------|
|7-------5-------5-------3-------|
|5-------3---------------1-------|


  Cristina's Chorus:  
 
|--------------------------------|
|--------------------------------|
|--5---5---4---4---2---2---2---2-|
|7---7---5---5---4---4---3---3---|
|7-------5-------4-------3-------|
|5-------3-------2-------1-------|


  "Get out of my life..." Chorus:
 
|--------------------------------|
|--------------------------------|
|--------------------------------|
|----------------5-------3-------|
|5-------3-------3-------1-------|
|3-------1-----------------------|

 
  "Your to blame..." Chorus:
       
|--------------------------------|
|--------------------------------|
|--------------------------------|
|--------7-----------------------|
|7-------5-------3-------5-------|
|5-------5-------1-------3-------|

 
  Interlude/Cristina's verse:

  Gtr. 1 clean tone
|--------------------------------|
|----0---------------------------|
|--0---0---0-----4-----------4---|
|2-------2-----4---4---4---4---4-|
|------------5-------5---2-------|
|--------------------------------|

|--------0-----------------------|
|--------------------------------|
|------0---0---0-----------------|
|--4---------4-------------------|
|2---3---------------------------|
|--------------------------------|

 
  Gtr. 2  w/ distortion
|--------------------------------|
|--------------------------------|
|--------7-------4-------5-------|
|2-------7-------4-------5-------|
|2-------5-------2-------3-------|
|0-------------------------------|
00:00 / 00:00
Otros videos de esta canción
Repetir
Otros videos de esta canción
Composición de Andrea Ferro / Cristina Scabbia
53 exhibiciones
    • ½ Tono
    • A
    • Bb
    • B
    • C
    • Db
    • D
    • Eb
    • E
    • F
    • F#
    • G
    • Ab
  • Agregar a la lista
    00:00 / 00:00
    OK