Cifra Club

My Wings

Lacuna Coil

Cifrado: Principal (guitarra y guitarra eléctrica)
tono: C
Tuning : Down one whole step to D G C F A D     


Part I/Gtr. 1: This part is played through almost the entire song.
               After the first little verse omit the second measure
               and play the first continuously.
               (It can also be played using the chord x,x,2,4,5,0).

                
|0-0-0---0---0-0---0-0---0-0-0-0-0-0-0---0---0-0---0-0---0-0-0-0-|
|0-0-0---0---0-9---0-0---0-0-0-0-0-0-0---0---0-0---0-0---0-0-0-0-|
|9-9-9---9---9-9---9-9---9-9-9-9-9-9-9---9---9-9---9-9---9-9-9-9-|
|9-9-9---9---9-9---9-9---9-9-9-9-9-9-9---9---9-9---9-9---9-9-9-9-|
|7-7-7---7---7-7---7-7---7-7-7-7-7-7-7---7---7-7---7-7---7-7-7-7-|
|----------------------------------------------------------------|

 
|0-0-0---0---0-0---0-0---0-0-0-0-0-0-0---0-0-0---0-0-0---0-0-0---|
|0-0-0---0---0-0---0-0---0-0-0-0-0-0-0---0-0-0---0-0-0---0-0-0---|
|9-9-9---9---9-9---9-9---9-9-9-9-9-9-9---9-9-9---9-9-9---9-9-9---|
|9-9-9---9---9-9---9-9---9-9-9-9-9-9-9---9-9-9---9-9-9---9-9-9---|
|7-7-7---7---7-7---7-7---7-7-7-7-7-7-7---7-7-7---7-7-7---7-7-7---|
|----------------------------------------------------------------|


Part I/Gtr. 2 


|----------------------------------------------------------------|
|----------------------------------------------------------------|
|----------------------------------------------------------------|
|--------------------------------4-------------------------------|
|2-------------------------------2-------------------------------|
|0---------------------------------------------------------------|

 
|----------------------------------------------------------------|
|----------------------------------------------------------------|
|----------------------------------------------------------------|
|----------------------------------------------------------------|
|5-------------------------------7-7-7---7-7-7---7-7-7---7-7-7---|
|3-------------------------------5-5-5---5-5-5---5-5-5---5-5-5---|


Part II/Gtr. 2:  I like to play this part with the strumming pattern
                 of Part I/ Gtr. 1.


|----------------------------------------------------------------|
|----------------------------------------------------------------|
|----------------------------------------------------------------|
|9-------------------------------11------------------------------|
|7-------------------------------9-------------------------------|
|----------------------------------------------------------------|

 
|----------------------------------------------------------------|
|----------------------------------------------------------------|
|----------------------------------------------------------------|
|----------------------------------------------------------------|
|10------------------------------12------------------------------|
|8-------------------------------10------------------------------|

The Part I/Gtr. 2 is played after this. 


Chorus/Gtr. 1


|----------------------------------------------------------------|
|----------------------------------------------------------------|
|----------------------------------------------------------------|
|9-----9-------------------5-----9-----9---------7-----7---------|
|7-----7---9-----5-----5---3-----7-----7---9-----5-----5---3-----|
|----------7-----3-----3-------------------7---------------1-----|


Chorus/Gtr. 2:  This part is barely audible.
  
|----------------------------------------------------------------|
|----------------------------------------------------------------|
|--9---9---7-------11--11--7-------9---9---7-------11--11--12----|
|----------------------------------------------------------------|
|7---7---7-------10--10--10------7---7---7-------10--10--10------|
|----------------------------------------------------------------|


Part III/Gtr. 2:  This part comes right before the last chorus.  Basically
                  the guitar alternates beween the A on the 5th string,
                  2nd fret and its ocatave on the 3rd string, 4th fret.


The song ends with a D5.
00:00 / 00:00
Otros videos de esta canción
Repetir
Otros videos de esta canción
Composición de Andrea Ferro / Cristina Scabbia
23 exhibiciones
    • ½ Tono
    • A
    • Bb
    • B
    • C
    • Db
    • D
    • Eb
    • E
    • F
    • F#
    • G
    • Ab
  • Agregar a la lista
    00:00 / 00:00
    OK