Cifra Club

Razor Burn

Lagwagon

Cifrado: Principal (guitarra y guitarra eléctrica)
Selo Cifra Club: esta cifra foi revisada para atender aos critérios oficiais da nossa Equipe de Qualidade.
tono: E


Intro
e|-----------------------------------------------------------|
B|-----------------------------------------------------------|
G|--9-9-9-9-9/--9-9-9-9-9/--9-9-9-9-9/---------6-6-6---------|
D|--9-9-9-9-9/--9-9-9-9-9/--9-9-9-9-9/--7-7-7--6-6-6--9-9-9--| X2
A|--7-7-7-7-7/--7-7-7-7-7/--7-7-7-7-7/--7-7-7--4-4-4--9-9-9--|
E|--------------------------------------5-5-5---------7-7-7--|

Verse X2 ("She broke up with me.....”)
e|------------------------------------------------------|
B|------------------------------------------------------|
G|--9-9-9-9-9-9---------------9-9-9-9-9-9---------------|
D|--9-9-9-9-9-9--9-9-9-9-9-9--9-9-9-9-9-9--7-7-7-7-7-7--|
A|--7-7-7-7-7-7--9-9-9-9-9-9--7-7-7-7-7-7--7-7-7-7-7-7--|
E|---------------7-7-7-7-7-7---------------5-5-5-5-5-5--|

e|---------------------------------------------------------------|
B|---------------------------------------------------------------|
G|-9-9-9-9-9-9---------------9-9-9-9-----------6-6-6-6-----------|
D|-9-9-9-9-9-9--9-9-9-9-9-9--9-9-9-9--7-7-7-7--6-6-6-6--9-9-9-9--|
A|-7-7-7-7-7-7--9-9-9-9-9-9--7-7-7-7--7-7-7-7--4-4-4-4--9-9-9-9--|
E|--------------7-7-7-7-7-7-----------5-5-5-5-----------7-7-7-7--|

Chorus ("On the night she left me.....”)
e|-------------------|--------1st---------|-----2nd-----|
B|-------------------|--------------------|-------------|
G|--9-9-9-9----------|--------------------|-------------|
D|--9-9-9-9-4-4-4-4--|--7-7-7-7--9-9-9-9--|--7~--9-9-9--|
A|--7-7-7-7-4-4-4-4--|--7-7-7-7--9-9-9-9--|--7~--9-9-9--|
E|----------2-2-2-2--|--5-5-5-5--7-7-7-7--|--5~--7-7-7--|


Intro

Verse ("I’ve heard it said she.....”)


Bridge
e|---------------------------------------------------|
B|---------------------------------------------------|
G|---------------------------------------------------|
D|--9-9-9-9--13-13-13-13--14-14-14-14--11-11--14-14--| X4
A|--7-7-7-7--11-11-11-11--12-12-12-12---9--9--12-12--|
E|---------------------------------------------------|

Outro
e|------------------------------------------------------|
B|------------------------------------------------------|
G|--9-9-9-9-9-9---------------9-9-9-9-9-9---------------|
D|--9-9-9-9-9-9--9-9-9-9-9-9--9-9-9-9-9-9--7-7-7-7-7-7--|
A|--7-7-7-7-7-7--9-9-9-9-9-9--7-7-7-7-7-7--7-7-7-7-7-7--|
E|---------------7-7-7-7-7-7---------------5-5-5-5-5-5--|

e|--------------------------------------------------------------------|
B|--------------------------------------------------------------------|
G|--9-9-9-9-9-9---------------9-9-9---------9-9-9---------------------|
D|--9-9-9-9-9-9--9-9-9-9-9-9--9-9-9--7-7-7--9-9-9--7-7-7-7-7-7-7--9~--|
A|--7-7-7-7-7-7--9-9-9-9-9-9--7-7-7--7-7-7--7-7-7--7-7-7-7-7-7-7--9~--|
E|---------------7-7-7-7-7-7---------5-5-5---------5-5-5-5-5-5-5--7~--|

e|------5p4-0----7p5-0----5p4-0---12~--|
B|-------------------------------------|
G|--9~---------------------------------|
D|--9~---------------------------------|
A|--7~---------------------------------|
E|-------------------------------------|
00:00 / 00:00
Otros videos de esta canción
Repetir
Otros videos de esta canción
641 exhibiciones
    • ½ Tono
    • A
    • Bb
    • B
    • C
    • Db
    • D
    • Eb
    • E
    • F
    • F#
    • G
    • Ab
  • Agregar a la lista

Afinación de cifrado

Afinador online

    00:00 / 00:00
    OK