Cifra Club

11th Hour

Lamb of God

Cifrado: Principal (guitarra y guitarra eléctrica)
Acompaña nuestras novedades de Cifra Club en español.
¡Sigue nuestro perfil en Instagram!
tono: C
Intro Riff
|---------------------------------------------------------|
|---------------------------------------------------------|
|------p------------p------------p------------p---p---p---|
|--7--87--------7--87--------7--87--------7--87--76--65---|
|-------6------------6------------6------------6---5---4--|
|---00---00-0-00-00---00-0-00-00---00-0-00-00-------------|
    ..   .. . .. ..   .. . .. ..   .. . .. ..

Ending
|---------|
|---------|
|---------|
|---------|
|-876-6---|
|----8-87-|
  .......

Riff 2
|--------------------------------------------|
|--------------------------------------------|
|--------------------------------------------|
|--8-7---------p----------ph----------p--7---|
|--6-5--------10---------304---------10--5---|
|---0-0-0-0-0-10-0-0-0-0-304-0-0-0-0-10-0-77-|
    . . . . .    . . . .     . . . .    .

Fill
|------------------------------|
|------------------------------|
|------------------------------|
|------------------------------|
|---------------------3/6-6/7--|
|--44-444-4444-333-33-3/6-6/7--|
   .. ... .... ... ..

Riff 2
Fill

Chorus
|--------------------------------------------------------|
|----------5--------5----5--------6-------6--10-9-6-8fb--|
|--------------------------------------------------------|
|--------------------------------------------------------|
|--------------------------------------------------------|
|--000-000--000-000--000--888-888--888-888---------------|
   ... ...  ... ...  ...  ... ...  ... ...

|------------------------------------------------------|
|---------5---------5----5--------6-------6------------|
|--------------------------------------------------p---|
|-------------------------------------------75----50---|
|---------------------------------------------878---8--|
|--000-000--000-000--000--888-888--888-888-------------|

Verse Variation
|--------------------------------------------|
|--------------------------------------------|
|--------------------------------------------|
|----------h--------h--------h--------h--pp--|
|---------78-------78-------78-------788875--|
|--000-000--000-000--888-888--555-555--------|

Verse 2nd Guitar part.
|-------------------------------------------|
|-------------------------------------------|
|-------------------------------------------|
|---------7/9-----7/9------9/10-------h--pp-|
|------------------------------------788875-|
|-------------------------------------------|

Chorus


Bridge(Kick-ass riff)
|--------------------------------------------------------------|
|--------------------------------------------------------------|
|-------------5--hp--------------------------------------------|
|-------7-5-----787-----7-5-------------------------hp------8-7|
|-----8--------5------8-----------------7-10-8-7-8-787----8----|
|--000-0-0-080-----000-0-0-05~~-08~~-888-8--8-8-8-8---8555-5-5-|
   ... . . . .     ... . .           ... .  . . . .   .... . .
|------------|
|------------|
|------------|
|------------|
|------------|
|--05~~-06~~-|

Riff 5
|------------------------|
|------------------------|
|------------------------|
|------------------------|
|------------------------|
|-00000-00000-000-00000--|
  ..... ..... ... .....
4 times
Then
|---------0-|
|---------4-|
|---------7-|
|-----------|
|-----------|
|--0-0-0----|

Riff 5 backing
|------0-----0---0-------|
|------4-----4---4-------|
|------7-----7---7-------|
|------------------------|
|------------------------|
|-00000-00000-000-00000--|
  ..... ..... ... .....

Riff 6(Approx.)
|--------------------------------|
|--------------------------------|
|--------------------------------|
|--------------------------------|
|--------------------------------|
|--0-0-0-0-0-0-0-0-0-0-0-05~06~--|
   . . . . . . . . . . .
Riff 5 and 6

End with
|---------------------|
|---------------------|
|-------------5-hppp--|
|-------7-5----78750--|
|-----8---------------|
|--000-0-0-080--------|
   ... . . . .
Composición de Lamb of God
Colaboración y revisión:
  • Vinícius Carmo
94 vistas
    • ½ Tono
    • A
    • Bb
    • B
    • C
    • Db
    • D
    • Eb
    • E
    • F
    • F#
    • G
    • Ab
  • Agregar a la lista

    0 comentarios

    Ver todos los comentarios

    ¿Lograste tocar?

    1 Tocaron 0 Aún no

    ¡Graba un video tocando 11th Hour y envíanoslo!

    00:00 / 00:00
    Outros vídeos desta música
    Repetir Calidad Automático
    Outros vídeos desta música
    00:00 / 00:00
    Automático
    OK