Cifra Club

Barbaraosa

Lamb of God

Cifrado: Principal (guitarra y guitarra eléctrica)
Acompaña nuestras novedades de Cifra Club en español.
¡Sigue nuestro perfil en Instagram!
tono: Ebm
E|----------------------------------------|-----------------|
B|----------------------------------------|-----------------|
G|----------------------------------------|-----------------|
D|----4-----4-----4----4--------1-------1-|------1-----1/2--| (3x)
A|----------------------------------------|-----------------|
D|-2-----2-----2----2----0--1-------1-----|--1------1-------|

E|----------------------------------------|-------------------|
B|----------------------------------------|-------------------|
G|----------------------------------------|-------------------|
D|----8-------8------8-------8p9-----6----|----6------2----3--|
A|----------------------------------------|-------------------|
D|-6------6------6--------6------4--------|-4------0----1-----|

E|----------------------------------------|-----------------|
B|----------------------------------------|-----------------|
G|----------------------------------------|-----------------|
D|----4-----4-----4----4--------1-------1-|------1-----1/2--| (3x)
A|----------------------------------------|-----------------|
D|-2-----2-----2----2----0--1-------1-----|--1------1-------|

E|----------------------------------------|-------------------|
B|----------------------------------------|-------------------|
G|----------------------------------------|-------------------|
D|----8-------8------8-------8p9-----6----|----6------2----3--|
A|----------------------------------------|-------------------|
D|-6------6------6--------6------4--------|-4------0----1-----|

E|----------------------------------------|-----------------|
B|----------------------------------------|-----------------|
G|----------------------------------------|-----------------|
D|----4-----4-----4----4--------1-------1-|------1-----1/2--| (3x)
A|----------------------------------------|-----------------|
D|-2-----2-----2----2----0--1-------1-----|--1------1-------|

E|----------------------------------------|-------------------|
B|----------------------------------------|-------------------|
G|----------------------------------------|-------------------|
D|----8-------8------8-------8p9-----6----|----6------2----3--|
A|----------------------------------------|-------------------|
D|-6------6------6--------6------4--------|-4------0----1-----|

Composición de Lamb Of God
Colaboración y revisión:
  • matheus Manuel
27 vistas
    • ½ Tono
    • Am
    • Bbm
    • Bm
    • Cm
    • C#m
    • Dm
    • Ebm
    • Em
    • Fm
    • F#m
    • Gm
    • G#m
  • Agregar a la lista

    0 comentarios

    Ver todos los comentarios

    ¿Lograste tocar?

    1 Tocaron 0 Aún no

    ¡Graba un video tocando Barbaraosa y envíanoslo!

    00:00 / 00:00
    Outros vídeos desta música
    Repetir Calidad Automático
    Outros vídeos desta música
    00:00 / 00:00
    Automático
    OK