Cifra Club

Break You

Lamb of God

Cifrado: Principal (guitarra y guitarra eléctrica)
Acompaña nuestras novedades de Cifra Club en español.
¡Sigue nuestro perfil en Instagram!
tono: F#
Album: Ashes of the Wake (2004)


I'm sure this is not perfect but I think it is very close and much better 
than any others i've seen.

I have not marked pinch harmonics but you can hear where they are.




(0:00)
|-----------------------------------------------------|
|-----------------------------------------------------|
|-----------------------------------------------------|
|---------------------------------------------3---4---|
|---------------------------------------------1-3-2-4-|
|--00-1p0-1p0-00-1p0-1p0-00-1p0-00-1p0-1p0-00---3---4-|
|PM..         ..         ..     ..         ..   .
|
|-----------------------------------------------------------|
|-----------------------------------------------------------|
|-----------------------------------------------------------|
|-----------------------------------------------------------|
|---------------------------------------------5h8-5h8----4h8|
|--00-1p0-1p0-00-1p0-1p0-00-1p0-00-1p0-1p0-00---------00----|x4
 PM..         ..         ..     ..         ..         ..

(0:22)
|------------------------------------------------------|
|------------------------------------------------------|
|------------------------------------------------------|
|------------------------------------------------------|
|-----5h8-5h8----5h8-5h8----4h8----5h8-5h8----6-5-8-7--|
|--00---------00---------00-----00---------00-6-5-8-7--|
 PM..         ..         ..     ..         ..

|-------------------------------------------------------------|
|-------------------------------------------------------------|
|-------------------------------------------------------------|
|-------------------------------------------------------------|
|-----5h8-5h8----5h8-5h8----4h8----5h8-5h8--------------------|
|--00---------00---------00-----00---------00-8-11-0-7-10-0-6b|
 PM..         ..         ..     ..         .. . .. . . .. . 

 Guitar 1
|------------------------------------------------------|
|------------------------------------------------------|
|------------------------------------------------------|
|------------------------------------------------------|
|-----5h8-5h8----5h8-5h8----4h8----5h8-5h8----6-5-8-7--|
|--00---------00---------00-----00---------00-6-5-8-7--|
|PM..         ..         ..     ..         ..
|
|Guitar 2
|-------------------------------------------------------------|
|-------------------------------------------------------------|
|-------------------------------------------------------------|
|-------------------------------------------------------------|
|-----8h12-8h12----8h12-8h12----7h11----8h12-8h12----6-5-8-7--|
|--00-----------00-----------00------00-----------00-6-5-8-7--|
 PM..           ..           ..      ..           ..

 
 Guitar 1
|-----------------------------------------------------------|
|-----------------------------------------------------------|
|-----------------------------------------------------------|
|---------------------------------------------------------8-|
|-----5h8-5h8----5h8-5h8----4h8----5h8-5h8----3-----5-----6-|
|--00---------00---------00-----00---------00---6-5---6-5---|
|PM..         ..         ..     ..         ..   . .   . . 
|
|Guitar 2
|------------------------------------------------------------------|
|------------------------------------------------------------------|
|------------------------------------------------------------------|
|----------------------------------------------------------------8-|
|-----8h12-8h12----8h12-8h12----7h11----8h12-8h12----3-----5-----6-|
|--00-----------00-----------00------00-----------00---6-5---6-5---|
 PM..           ..           ..      ..           ..   . .   . .

(0:35)  (x4)   Did not tab the background guitar
|---------------------------------------------------------------|
|---------------------------------------------------------------|
|---------------------------------------------------------------|
|-7\---------------------------------------4-3b-----------------|
|-5\------------------------------------------------------------|
|----0000-1p0-0000-1p0-1p0-000000-1p0-0000------0000-1p0-000000-|
 PM  ....     ....         ......     ....      ....     ......

|-----------------------------------|
|-----------------------------------|
|-----------------------------------|
|-----------------------------------|
|----0-1-0-1-3-1-0-4-3-1-0-------0--|
|--5-----------------------5-4-5----| Ending 1,2,3
 PM. . . . . . . . . . . . . . . .

|-----------------------------------|
|-----------------------------------|
|-----------------------------------|
|-----------------------------------|
|----0-1-0-1-3-1-0-4-3-1-0----------|
|--5-----------------------5p0-1-3--| Ending 4
 PM. . . . . . . . . . . .

(1:10)
|-------------------------------------------------------------------|
|-------------------------------------------------------------------|
|-------------------------------------------------------------------|
|-----------------------------------------------------------2---5---|
|----8---7---8---7---8---7---1-4------8---7---1-4-4h5p4-1-0---0---3-|
|--0---0---0---0---0---0---0------000---0---0-----------------------|
 PM.   .   .   .   .   .   .      ...   .   . . .

                              (X3)
|----------------------------------|-----------------------------------|
|----------------------------------|-----------------------------------|
|----------------------------------|-----------------------------------|
|----------------------------------|---------------------------2---5---|
|------8---7---8---7---8---7---1-4-|-----8---7---1-4-4h5p4-1-0---0---3-|
|--000---0---0---0---0---0---0-----|-000---0---0-----------------------|x2
 PM...   .   .   .   .   .   .       ...   .   . . .

Not sure what the second guitar plays over this the second time



(1:33)  (x4)   Did not tab the background guitar
|---------------------------------------------------------------|
|---------------------------------------------------------------|
|---------------------------------------------------------------|
|-7\---------------------------------------4-3b-----------------|
|-5\------------------------------------------------------------|
|----0000-1p0-0000-1p0-1p0-000000-1p0-0000------0000-1p0-000000-|
 PM  ....     ....         ......     ....      ....     ......

|-----------------------------------|
|-----------------------------------|
|-----------------------------------|
|-----------------------------------|
|----0-1-0-1-3-1-0-4-3-1-0-------0--|
|--5-----------------------5-4-5----| Ending 1,2,3
 PM. . . . . . . . . . . . . . . .

|-------------------------------------|
|-------------------------------------|
|--------------------------------3----|
|----------------------------2-----1--|
|----0-1-0-1-3-1-0-4h5p4-1-0---0------|
|--5----------------------------------| Ending 4
 PM. . . . . . . .

(2:07)                         (X3)
|----------------------------------|-----------------------------------|
|----------------------------------|-----------------------------------|
|----------------------------------|-----------------------------------|
|----------------------------------|---------------------------2---5---|
|------8---7---8---7---8---7---1-4-|-----8---7---1-4-4h5p4-1-0---0---3-|
|--000---0---0---0---0---0---0-----|-000---0---0-----------------------|
 PM...   .   .   .   .   .   .       ...   .   . . .         

(2:15)   Guitar 1    
|----------------------------------------|
|----------------------------------------|
|----------------------------------------|
|----------------------------------------|
|--0-----6----7--3--0-----6----77-7-33-3-|
|--0-----6----7--3--0-----6----77-7-33-3-|
|PM                            .    .    
|
|(2:15)   Guitar 2     
|------------------------------------------------------------------------|
|------------------------------------------------------------------------|
|-10-9-7-6-7-6h7p6---9--8-7-5--9-9h10p9-7-6--10-9-7-6-7-6h7p6---9--8-7-5-|
|------------------8------------------------------------------8----------|
|------------------------------------------------------------------------|
|------------------------------------------------------------------------|
 PM                .                                          .

(2:24)   Guitar 1    
|-------------------------------------------------|
|-------------------------------------------------|
|-------------------------------------------------|
|-------------------------------------------------|
|0---6---8---7---0---6---8--10-10--10--11-11--11--|
|0---6---8---7---0---6---8--10-10--10--11-11--11--|
PM                          ..         ..

(2:24)   Guitar 2
|---------------------------------------------------------------------|
|---------------------------------------------------------------------|
|-10-9-6b--8-7-5b--10-9-7b--9-9h10p9-7-6---10-9-6b--8-7-5b--10-9-7b---|
|---------------------------------------------------------------------|
|---------------------------------------------------------------------|
|---------------------------------------------------------------------|

(2:33)                                        
|-----------------------------------------------------|
|-----------------------------------------------------|
|-----------------------------------------------------|
|---------------------------------------------3---4---|
|---------------------------------------------1-3-2-4-|
|--00-1p0-1p0-00-1p0-1p0-00-1p0-00-1p0-1p0-00---3---4-|
|PM..         ..         ..     ..         ..   .
|
|-----------------------------------------------------------|
|-----------------------------------------------------------|
|-----------------------------------------------------------|
|-----------------------------------------------------------|
|---------------------------------------------5h8-5h8----4h8|
|--00-1p0-1p0-00-1p0-1p0-00-1p0-00-1p0-1p0-00---------00----|x2
 PM..         ..         ..     ..         ..         ..

(2:46)
|---------------------------------------------------------|
|---------------------------------------------------------|
|---------------------------------------------------------|
|---------------------------4---------------------------3-|
|---------------------------------------------------------|  
|--00--00--00--00--000--001----00--00--00--00--000--001---|
 PM..  ..  ..  ..  ...  ...    ..  ..  ..  ..  ...  ...

(2:52)                                         
|-----------------------------------------------------|
|-----------------------------------------------------|
|-----------------------------------------------------|
|---------------------------------------------3---4---|
|---------------------------------------------1-3-2-4-|
|--00-1p0-1p0-00-1p0-1p0-00-1p0-00-1p0-1p0-00---3---4-|
 PM..         ..         ..     ..         ..   .

|-----------------------------------------------------------|
|-----------------------------------------------------------|
|-----------------------------------------------------------|
|-----------------------------------------------------------|
|---------------------------------------------5h8-5h8----4h8|
|--00-1p0-1p0-00-1p0-1p0-00-1p0-00-1p0-1p0-00---------00----|
 PM..         ..         ..     ..         ..         ..

(2:58)
|---------------------------------------------------------|
|---------------------------------------------------------|
|---------------------------------------------------------|
|---------------------------4---------------------------3-|
|---------------------------------------------------------|  
|--00--00--00--00--000--001----00--00--00--00--000--001---|
 PM..  ..  ..  ..  ...  ...    ..  ..  ..  ..  ...  ...

(3:05)   Guitar 1                                      
|-----------------------------------------------------|
|-----------------------------------------------------|
|-----------------------------------------------------|
|---------------------------------------------3---4---|
|---------------------------------------------1-3-2-4-|
|--00-1p0-1p0-00-1p0-1p0-00-1p0-00-1p0-1p0-00---3---4-|
|PM..         ..         ..     ..         ..   .
|
|(3:05)   Guitar 2
|-----------------------------------------------------|
|-----------------------------------------------------|
|-----------------------------------------------------|
|---------------------------------------------3---4---|
|---------------------------------------------1-3-2-4-| 
|--00---------00---------00---------00-----00---3---4-|
|PM..         ..         ..         ..     ..   . 
|
|Guitar 1
|-----------------------------------------------------------|
|-----------------------------------------------------------|
|-----------------------------------------------------------|
|-----------------------------------------------------------|
|---------------------------------------------5h8-5h8----4h8|
|--00-1p0-1p0-00-1p0-1p0-00-1p0-00-1p0-1p0-00---------00----|
|PM..         ..         ..     ..         ..         ..
|
|Guitar 2
|------------------------------------------------------------|
|------------------------------------------------------------|
|------------------------------------------------------------|
|------------------------------------------------------------|
|---------------------------------------------5h8-5h8----4h8-|All
|--00---------00---------00---------00-----00---------00-----|x2
 PM..         ..         ..         ..     ..         ..

(3:17)                                    
|-----------------------------------------------------|
|-----------------------------------------------------|
|-----------------------------------------------------|
|---------------------------------------------3---4---|
|---------------------------------------------1-3-2-4-|
|--00-1p0-1p0-00-1p0-1p0-00-1p0-00-1p0-1p0-00---3---4-|
|PM..         ..         ..     ..         ..   .
|
|-----------------------------------------------------|
|-----------------------------------------------------|
|-----------------------------------------------------|
|---------------------------------------------3-------|
|---------------------------------------------1-3-2-1-|
|--00-1p0-1p0-00-1p0-1p0-00-1p0-00-1p0-1p0-00---3-2-1-|x2
 PM..         ..         ..     ..         ..   . . .

Composición de Chris Adler / Mark Morton / Randy Blythe
27 vistas
    • ½ Tono
    • A
    • Bb
    • B
    • C
    • Db
    • D
    • Eb
    • E
    • F
    • F#
    • G
    • Ab
  • Agregar a la lista

    0 comentarios

    Ver todos los comentarios

    ¿Lograste tocar?

    0 Tocaron 0 Aún no

    ¡Graba un video tocando Break You y envíanoslo!

    00:00 / 00:00
    Outros vídeos desta música
    Repetir Calidad Automático
    Outros vídeos desta música
    00:00 / 00:00
    Automático
    OK