Cifra Club

Grace

Lamb of God

Cifrado: Principal (guitarra y guitarra eléctrica)
tono: F
(afinação Db Ab Db Gb Bb Eb)

(guitarra 1)
            /--3--\
E|--------------------------|----------------------|-----3--5p3---3----------|
B|--------------------------|----------------------|------------6----6-5-3-6-|
G|-10~-14-12h14p12\10-14p10-|-10/12-12/14-14\5-5/7-|-7~----------------------|
D|--------------------------|----------------------|-------------------------|
A|--------------------------|----------------------|-------------------------|
D|--------------------------|----------------------|-------------------------|
                                                /-3-\

E|------------------------------------|--------------------|
B|-5-3---5--3-----3-------------------|--------------------|
G|-----5------5-3----5-3-2-5--3-2-----|--------------------|
D|--------------------------------5\3-|-/8~--8-7h8p7\5-7p5-|
A|------------------------------------|--------------------|
D|------------------------------------|--------------------|

              /--3---\
E|-------------------------|--------|------------------------------------|
B|-------------------------|--------|----------------5--6p5\3-5--3-------|
G|-------------------------|--------|------------5-7---------------5\3-0-|
D|-(5)\3--5--5b(7)r(5)-3---|--------|-----3-5-/7-------------------------|
A|-----------------------3-|-5~~----|-3-5--------------------------------|
D|-------------------------|--------|------------------------------------|

               /--3--\
E|--------------------------|--------------------------------------|
B|-11~-11--11-10h11p10\8----|-10-8------8--------------------------|
G|-----------------------10-|-----10-9---10-9-7--10-9-7----8-7-6---|
D|--------------------------|--------------------------10--------7-|
A|--------------------------|--------------------------------------|
D|--------------------------|--------------------------------------|

E|----------------|-------------------|-------|-----------|--------|--------||
B|----------------|-------------------|-------|-----------|--------|--------||
G|-7~~----/9-9/10-|-10\9-9\7----------|-------|-----------|--------|--------||
D|----------------|----------12\5-5-7-|-8~----|-7~~\\-----|--------|--------||
A|----------------|-------------------|-------|-------3---|-5------|-(5)----||
D|----------------|-------------------|-------|-----------|--------|--------||

(guitarra 2 - parte harmonico)

           /-3-\
E|-----------------------|--------------------|----------|----------|
B|-----------------------|--------------------|----------|----------|
G|-7~--10-9h10p9\7--10p7-|-7/9-9/10-10\9-9/10-|-10~~-----|-9~~~~----|
D|-----------------------|--------------------|----------|----------|
A|-----------------------|--------------------|----------|----------|
D|-----------------------|--------------------|----------|----------|

          /--3--\                     /---3---\
E|------------------------|-------------------------|-------|-------|
B|------------------------|-------------------------|-------|-------|
G|------------------------|-------------------------|-------|-------|
D|-/12~--10h12p10\8--10p8-|-8\7-7/8--8b(10)r(8)-7\5-|-/7~~--|-5~~~--|
A|------------------------|-------------------------|-------|-------|
D|------------------------|-------------------------|-------|-------|

                /--3--\
E|---------------------------|-----------------------------------------------|
B|-15~~-15-15-13h15p13-------|-13--------------------------------------------|
G|---------------------15-14-|---15-14-12--15-14-12---14-12-------12---------|
D|---------------------------|---------------------15------15-14----15-14-11-|
A|---------------------------|-----------------------------------------------|
D|---------------------------|-----------------------------------------------|

E|-----------|----------|-------|--------|--------|---------||
B|-----------|----------|-------|--------|--------|---------||
G|-----------|----------|-------|-10-----|-(10)---|-(10)----||
D|-12~-------|-(12)-----|-(12)--|--------|--------|---------||
A|-----------|----------|-------|--------|--------|---------||
D|-----------|----------|-------|--------|--------|---------||

(outra guitarra) Bb  Gm  Dm  C 
(harmonia mas é um pouco mais pesado do que isso)

(sugestões para aberturas de acordes)
E|--0---|--3---|--0---|--3---|      |--0---|--3---|--0---|------||
B|--3---|--3---|--3---|--3---|      |--3---|--3---|--3---|------||
G|--0---|--3---|--2---|--0---| X3   |--0---|--3---|--2---|------||
D|--3---|--0---|--0---|--0---|      |--3---|--0---|--0---|------||
A|--1---|--x---|--x---|--3---|      |--1---|--x---|--x---|------||
D|------|--5---|--0---|------|      |------|--5---|--0---|------||

(riff)
E|------------------------------------|------------------------------------|
B|------------------------------------|------------------------------------|
G|------------------------------------|------------------------------------|
D|------------------------------------|------------------------------------|
A|----------0--------1-0------0-------|----------0--------6----------------|
D|-0-1-4-5----5-4-5------5-4----5-4-1-|-0-1-4-5----5-4-5----8-7-5--7-5-4-5-|

E|------------------------------------|-----------------------------------||
B|------------------------------------|-----------------------------------||
G|------------------------------------|-----------------------------------||X2
D|------------------------------------|-----------------------------------||
A|----------0--------1-0------0-------|----------0------------------------||
D|-0-1-4-5----5-4-5------5-4----5-4-1-|-0-1-4-5----5-4-5--3-5-3-6--3-5-3-6||

Eb|------------------------------------|------------------||
Bb|------------------------------------|------------------||
Gb|------------------------------------|------------------||
Db|------------------------------------|------------------||
Ab|----------0-------------------------|------------------||
Db|-0-1-4-5----5-4-5--3-5-3-6--3-5-3-6-|-3-5-3-6--3-5-3-6-||

(primeiro verso)
E|------------------------------------|------------------------------------|
B|------------------------------------|------------------------------------|
G|------------------------------------|------------------------------------|
D|------------------------------------|------------------------------------|
A|-------5--------5-------------------|-------5------------------------0-3-|
D|-0-0-0----0-0-0----0-0-0-0--3-5-3-6-|-0-0-0----0-0-0-0--5-3-1-0--5-3-----|
    pm - |   pm - |   pm - - |           pm - |   pm - - |
                                                                             X2
E|------------------------------------|------------------------------------||
B|------------------------------------|------------------------------------||
G|------------------------------------|------------------------------------||
D|------------------------------------|------------------------------------||
A|-------5--------5-------------------|-------5-----------6-5-5-3--6-5-5-3-||
D|-0-0-0----0-0-0----0-0-0-0--3-5-3-6-|-0-0-0----0-0-0-0-------------------||
    pm - |   pm - |   pm - - |           pm - |   pm - - |


E|-------------------------------|------------------|
B|-------------------------------|------------------|
G|-10101010-10-10-10101010-10-10-|-1077-7-7-7-7-----|
D|-8-8-8-8--8--8--8-8-8-8--8--8--|-8-55-5-5-5-5-----|
A|-8-8-8-8--8--8--8-8-8-8--8--8--|-8-55-5-5-5-5-----|
D|-8-8-8-8--8--8--8-8-8-8--8--8--|-8-55-5-5-5-5-8b~~|
                                                 ph

E|-------------------------------------|------------------------------------|
B|-------------------------------------|------------------------------------|
G|-------------------------------------|------------------------------------|
D|-------------------8-7-5-7--10-8-7-8-|-------------------8-7-5-4--7-5-4---|
A|----------6-5-3-5--------------------|----------6-5-3-0-----------------6-|
D|-0-0-0-0--0-0-5-7--8-7-5-7--10-8-7-8-|-0-0-0-0--0-0-5-7--8-7-5-4--7-5-4-1-|
    pm - - - - - - -|                     pm - - - - - - -|

E|-------------------------------|------------------|
B|-------------------------------|------------------|
G|-10101010-10-10-10101010-10-10-|-1077-7-7-7-7-----|
D|-8-8-8-8--8--8--8-8-8-8--8--8--|-8-55-5-5-5-5-----|
A|-8-8-8-8--8--8--8-8-8-8--8--8--|-8-55-5-5-5-5-----|
D|-8-8-8-8--8--8--8-8-8-8--8--8--|-8-55-5-5-5-5-8b~~|
                                                 ph
(verso 2)

(repete enquanto toca o verso 1)
E|-------------------|-------------------|
B|-------------------|-------------------|
G|-2222-2-2-2222-2-2-|-5555-5-5-5555-5-5-|
D|-0000-0-0-0000-0-0-|-5555-5-5-5555-5-5-|
A|-0000-0-0-0000-0-0-|-3333-3-3-3333-3-3-|
D|-0000-0-0-0000-0-0-|-------------------|

E|-------------------------------|------------------||
B|-------------------------------|------------------||
G|-10101010-10-10-10101010-10-10-|-1077-7-7-7-7-----||
D|-8-8-8-8--8--8--8-8-8-8--8--8--|-8-55-5-5-5-5-----||
A|-8-8-8-8--8--8--8-8-8-8--8--8--|-8-55-5-5-5-5-----||
D|-8-8-8-8--8--8--8-8-8-8--8--8--|-8-55-5-5-5-5-8b~~||
                                                 ph

(pausa)
E|------------------------------------|------------------------------------|
B|------------------------------------|------------------------------------|
G|------------------------------------|------------------------------------|
D|------------------------------------|------------------------------------|
A|-------5-----------6----------------|------------------------------------|
D|-0-0-0----0-0-0-0----0-0-0--0-0-0-0-|-3-1-0-3--1-0-3-5--6-5-3-0--8-7-4-7-|
    pm - |   pm - - -|  pm - - - - - - |

E|------------------------------------|------------------------------------||
B|------------------------------------|------------------------------------||
G|------------------------------------|------------------------------------||
D|------------------------------------|------------------------------------||
A|-------5-----------6----------------|-5-8-7-5--7-5-3-5--6-5-3-5----------||
D|-0-0-0----0-0-0-0----0-0-0--0-0-0-0-|----------------------------8-7-4-7-||
    pm - |   pm - - -|  pm - - - - - - |

(solo)

(guitarra 1)
                   /--3--\           /---3---\            /--3-\
(2:40)
E|-------------------------------|------------------------------------|
B|-//-11~--11--11-10h11p10-------|------------------------------------|
G|-------------------------12-10-|-12b(14)r(12)-10-9--10-9h10p9-------|
D|-------------------------------|------------------------------12-10-|
A|-------------------------------|------------------------------------|
D|-------------------------------|------------------------------------|

                                                    (2:48)      /-3-\
E|----------------------|--------------------------|---------------------|
B|---------15/17--17/18-|-18\17--17\15--15\8--8/10-|-11------------------|
G|---------x--x---x--x--|-x--x---x--x---x--x--x-x--|-x---\3--3-2h3p2-----|
D|-12~~-12-12/14--14/15-|-15\14--14\12--12\5--5/7--|-8---------------5-3-|
A|----------------------|--------------------------|---------------------|
D|----------------------|--------------------------|---------------------|
    ph

    /--3--\          /-3-\
E|----------------------------|-----------------|
B|----------------------------|-----------------|
G|----------------------------|-----------------|
D|-5b(7)r(5)-3-2--3-2h3p2-----|-----------------|
A|------------------------5-3-|-5~~~b(7)r(5)~~~~|
D|----------------------------|-----------------|
    ph

    /-3-\ /--3-\  /--3--\/--3-\
E|---------13h17t22p17p13-------20~b(22)~~~~~13-|
B|-------15--------------15---------------------|
G|-----14------------------14-------------------|
D|---15----------------------15-----------------|
A|-17-------------------------------------------|
D|----------------------------------------------|

E|-15b(18)~~~13h15p13\12--13p12\10h12-|
B|------------------------------------|
G|------------------------------------|
D|------------------------------------|
A|------------------------------------|
D|------------------------------------|

E|-10p9---9----------------------------------------|
B|------11---11p10--11--10-------------------------|
G|----------------12------12-10-12--12p11-11-------|
D|-------------------------------------------12-11-|
A|-------------------------------------------------|
D|-------------------------------------------------|

E|--------------------10--13-12-10-12--10---------|
B|------------10-11-14-------------------14-11-10-|
G|---9-10-12--------------------------------------|
D|-12---------------------------------------------|
A|------------------------------------------------|
D|------------------------------------------------|

(3:01)
E|-13-12-10---15-13-12---17-15-13---18-17------|-20b(22)~---------5-------|
B|---------14---------15---------17------18-17-|----------8b(10)----8p6---|
G|---------------------------------------------|------------------------7-|
D|---------------------------------------------|--------------------------|
A|---------------------------------------------|--------------------------|
D|---------------------------------------------|--------------------------|

E|------------------------------------||---------|
B|-8p6---6----------------------------||---------|
G|-----7----7-6-5----7-6-5------------||---------|
D|----------------7--------7--7-6-5-3-||---------|
A|------------------------------------||-5~~~~---|
D|------------------------------------||---------|
                                         ph

(guitarra 2)
(pode fazer referência de linha com (guitarra 1 usando
os intervalos - por exemplo  (2:40) - em ambas as partes)

 (2:40)
                /-3-\       /----3--\         /-3-\
E|-----------------------|-----------------------------|----------||
B|-----------------------|-----------------------------|----------||
G|-//-7~--7--7-5h7p5-----|-----------------------------|----------||
D|-------------------8-7-|-8b(10)r(8)-7-5--7-5h7p5-----|----------||
A|-----------------------|-------------------------8-7-|-5~~~-----||
D|-----------------------|-----------------------------|----------||
 (2:48)

(3:01)
E|---------------------------------------10----------|-15b(17)~~~~~---||
B|-10----------11-10--------13-11-10--------13-11-10-|----------------||
G|----12-10-9--------12-10-----------12--------------|----------------||
D|---------------------------------------------------|----------------||
A|---------------------------------------------------|----------------||
D|---------------------------------------------------|----------------||

(repetindo até acabar)
Composición de Lamb of God
Colaboración y revisión:
  • Ivair Junior
132 vistas
    • ½ Tono
    • A
    • Bb
    • B
    • C
    • Db
    • D
    • Eb
    • E
    • F
    • F#
    • G
    • Ab
  • Agregar a la lista

    0 comentarios

    Ver todos los comentarios

    ¿Lograste tocar?

    0 Tocaron 0 Aún no

    ¡Graba un video tocando Grace y envíanoslo!

    00:00 / 00:00
    Outros vídeos desta música
    Repetir Calidad Automático
    Outros vídeos desta música
    00:00 / 00:00
    Automático
    OK