Cifra Club

Omerta

Lamb of God

Cifrado: Principal (guitarra y guitarra eléctrica)
tono: A
email: *

» main riff                                                            + (First Ending)----------- +
E|---------------------------------------------------|----------------------------------------------|
B|---------------------------------------------------|----------------------------------------------|
G|---------------------------------------------------|----------------------------------------------|
D|---------------------------------------------------|------------------------------------------0---|
A|---------------5------------------------4----------|--------------7--------------1--------1-0---0-|
D|--0-0-0--0--0-----0--0--0--0-0-0--0--0-----0--0--0-|-0-0-0--0--0-----0--0--0--0-----0--0----------|
  pm.....  .  .     .  .  .  .....  .  .     .  .  .   .....  .  .     .  .  .  .     .  .

(Second ending)
E|-------------------------------------|
G|-------------------------------------|
B|-------------------------------------|
D|-------------------------------------|
A|--------------11--------11/15--15*~~-|
D|--0--0--0--0------0--0---------------|
  pm.  .  .  .      .  .

» chorus
E|--------------------------------------------|-----------------------------|
B|--------------------------------------------|-----------------------------|
G|--------------------------------------------|-----------------------------|
D|--------------------------------------------|-----------------------------|
A|------6---------6---------6--------6----6---|-----------------------------|
D|---3--6(gb)--3--6(gb)--3--6(gb)--3-6b-3-6b--|--5--0--5--0--5--0--5-0-5-0--|
   pm.         .         .         .    .        .     .     .     .   .

» double time riff
E|-------------------------------------------------------------------------|
B|-------------------------------------------------------------------------|
G|-------------------------------------------------------------------------|
D|-------------------------------------------------------------------------|
A|---------6-----------------------------------6---------0-1-----3-4-------|
D|-3-2-1-0-6-0-0-0-0-0-0-0-0-0-0-0-0-0-3-2-1-0-6-0-0-0-0-0-1-0-0-3-4-0-0-0-|
           pm.........................           .......     ...     .....

» breakdown riff
 (1st only)
E|---------|--------------------------------------------------|
B|---------|--------------------------------------------------|
G|---------|--------------------------------------------------|
D|---------|--------------------------------------------------|
A|---------|-6--8~-------3--6~-------5------------------------|
D|-3-2-1-0-|-6--8~--0-0--3--6~--0-0--5~--0---0--0--0--0-0-0-0-|
                  pm...         ...          .  .  .  .......

» Outro Riff
E|-------------------------------------------------|-----------------------------------------------|
B|-------------------------------------------------|-----------------------------------------------|
G|-------------------------------------------------|-----------------------------------------------|
D|--------------7-----------------------6----------|--------------9--------------------------------|
A|--0---0---0---5---0---0---0---0---0---4---0---0--|--0---0---0---7---0---0---0---1--------1--0--0-|
D|--0---0---0-------0---0---0---0---0-------0---0--|--0---0---0-------0---0---0--------0-----------|
  pm.   .   .       .   .   .   .   .       .   .     .   .   .       .   .   .        .

E|-------------------------------------------------|-------------------------------------------------|
B|-------------------------------------------------|-------------------------------------------------|
G|-------------------------------------------------|-------------------------------------------------|
D|--------------7-----------------------6----------|--------------9----------------------------------|
A|--0---0---0---5---0---0---0---0---0---4---0---0--|--0---0---0---7---0---0---0--11b------11/15-15*~-|
D|--0---0---0-------0---0---0---0---0-------0---0--|--0---0---0-------0---0---0--------0-------------|
  pm.   .   .       .   .   .   .   .       .   .     .   .   .       .   .   .        .
Composición de Chris Adler / Mark Morton / Randy Blythe
144 vistas
    • ½ Tono
    • A
    • Bb
    • B
    • C
    • Db
    • D
    • Eb
    • E
    • F
    • F#
    • G
    • Ab
  • Agregar a la lista

    0 comentarios

    Ver todos los comentarios

    ¿Lograste tocar?

    3 Tocaron 1 Aún no

    ¡Graba un video tocando Omerta y envíanoslo!

    00:00 / 00:00
    Outros vídeos desta música
    Repetir Calidad Automático
    Outros vídeos desta música
    00:00 / 00:00
    Automático
    OK