Cifra Club

Pathetic

Lamb of God

Cifrado: Principal (guitarra y guitarra eléctrica)
Acompaña nuestras novedades de Cifra Club en español.
¡Sigue nuestro perfil en Instagram!
tono: G
Dropped D (d a d g b e)

gb = gradual bend
~ = vibrato

» INTRO
e|-------------------------------------------|---------------------------------------------|
b|-------------------------------------------|---------------------------------------------|
g|-------------------------------------------|---------------------------------------------|
d|-------------------------------------------|---------------------------------------------|
a|-------------------------------------------|---------------------------------------------|
d|-0-0-0--0--0-0-0--0--17b-r-15-12-0-12-13~~-|-0-0-0--0--0-0-0--0--17b-r-15-12-0-1-3-3-2-2-|
   .....  .  .....  .                          .....  .  .....  .              

e|-------------------------------------------|---------------------------------|
b|-------------------------------------------|---------------------------------|
g|-------------------------------------------|---------------------------------|
d|-------------------------------------------|---------------------------------|
a|-------------------------------------------|---------------------------------|
d|-0-0-0--0--0-0-0--0--17b-r-15-12-0-12-13~~-|-7-7-7-8-8-8-2-2-8-2-2-2-7-1-1-1-|
   .....  .  .....  .                     

e|-------------------------------------------|--------------------------------------------------|
b|-------------------------------------------|--------------------------------------------------|
g|-------------------------------------------|--------------------------------------------------|
d|-------------------------------------------|--------------------------------------------------|
a|-------------------------------------------|--------------------------------------------------|
d|-0-0-0--0--0-0-0--0--17b-r-15-12-0-15-14~~-|-0-0-0--0--0-0-0--0--17b-r-15-12-0-15-14-14-13-13-|
   .....  .  .....  .                          .....  .  .....  .

e|--------------------------------------------------|---------------------------------|
b|--------------------------------------------------|---------------------------------|
g|--------------------------------------------------|---------------------------------|
d|--------------------------------------------------|---------------------------------|
a|--------------------------------------------------|---------------------------------|
d|-0-0-0--0--0-0-0--0--17b-r-15-12-0-15-14-14-13-13-|-7-7-7-8-8-8-2-2-8-2-2-2-7-1-1-1-|
   .....  .  .....  .

» INTRO END/FILL
e|----------------------|
b|----------------------|
g|----------------------|
d|----------------------|
a|----------------------|
d|-7-7-7-8-8-8-2-2-1-gb-|

» VERSE
e|-----------------------------------------------------------|
b|-----------------------------------------------------------|
g|-----------------------------------------------------------|
d|-----------------------------------------------------------|
a|-----------------------------------------------------------|
d|-0-0-0--0-0--0-0-0--0-0---0-0-0--0-0---0-0-4\3-0-0-7\6-3-6-|
   .....  . .  .....  . .   .....  . .   ...     ...

e|----------------------------------------------------------|
b|----------------------------------------------------------|
g|----------------------------------------------------------|
d|----------------------------------------------------------|
a|----------------------------------------------------------|
d|-0--0--0--0--0-0-0--0-0---0-0-0--0-0--0-4-0-1-0-4-0-5-0-1-|
   .  .  .  .  .....  . .   .....  . .  ...................

e|---------------------------------------------------------------------------|
b|---------------------------------------------------------------------------|
g|---------------------------------------------------------------------------|
d|---------------------------------------------------------------------------|
a|---------------------------------------------------------------------------|
d|-0-0-0-0--0-0-0-0--0-0-0-0--0-0--0-0-0-0-0--0-0-0-0-0-0-0-4*br-0-0-6br-3-6-|
   .....    .....    .....    ...  .......    .............      ...  

e|----------------------------------------------------------------------------|
b|----------------------------------------------------------------------------|
g|----------------------------------------------------------------------------|
d|----------------------------------------------------------------------------|
a|----------------------------------------------------------------------------|
d|-0-0-0-0--0-0-0-0--0-0-0-0--0-0--0-0-0-0-0--0-0-0-0-0-0-0-4-0-1-0-4-0-5-0-1-|
   .....    .....    .....    ...  .......    ...............................

» CHORUS
e|-------------------|-----------------------------------|
b|-------------------|-----------------------------------|
g|-------------------|-----------------------------------|
d|-------------------|-----------------------------------|
a|-------------------|-----------------------------------|
d|-2--3--1--2--3-2-1-|-3-2-2-5-2-2-6-3-3-7-5-5-8-7-10/12-|

» 2nd CHORUS ENDING
e|-----------------------------------|-----------------------------------|
b|-----------------------------------|-----------------------------------|
g|-----------------------------------|-----------------------------------|
d|-----------------------------------|-----------------------------------|
a|-----------------------------------|-----------------------------------|
d|-2-2-2-3-3-3-1-1-1-2-2-2-3-2-1-1-1-|-3-2-2-5-2-2-6-3-3-7-5-5-8-7-10/12-|
   .................................   .................................

» INTERLUDE
e|-----------------------------------------|---------------------------------|
b|-----------------------------------------|---------------------------------|
g|-----------------------------------------|---------------------------------|
d|-----------------------------------------|---------------------------------|
a|---8*\7---8*\7---7*\6---7*\6-------------|-------------------------------8-|
d|-0------0------0------0------15-14-12-13-|-0-6-5-0-2-3-0-3-5-0-3-6-5-6-7---|
   .      .      .      .

e|---------------------------------------------|---------------------------------------------------|
b|---------------------------------------------|---------------------------------------------------|
g|---------------------------------------------|---------------------------------------------------|
d|---------------------------------------------|---------------------------------------------------|
a|---------------------------------------------|---------------------------------------------------|
d|-0-15-14-0-15-14-0-18-17-0-18-17-15-14-12-13-|-0--0--0--0--0--0--0-0-0-0--0--0--0--0--0--0--0--0-|
                                                 .  .  .  .  .  .  .......  .  .  .  .  .  .  .  .

» GUITAR SOLO (Ryhtym is CHORUS riff x2 for the 1st half of solo)
e|-------------------------------------------------------------------------
b|-------------------------------------------------------------------------
g|-working on it-----------------------------------------------------------
d|-------------------------------------------------------------------------
a|-------------------------------------------------------------------------
d|-------------------------------------------------------------------------

» RYTHYM (for second half of solo)                                  /----ending-----\
e|-----------------------------------------------------------------|-----------------|
b|-----------------------------------------------------------------|-----------------|
g|-----------------------------------------------------------------|-----------------|
d|-----------------------------------------------------------------|-----------------|
a|-0-0-0-0-0-0-0-0-1-1-1-1-1-1-1-1-0-0-0-0-0-0-0-0-3-3-3-3-3-3-3-3-|-----------------|
d|-0-0-0-0-0-0-0-0-3-3-3-3-3-3-3-3-2-2-2-2-2-2-2-2-1-1-1-1-1-1-1-1-|-0-1-0-5-0-1-0-5-|
   ...............................................................   ..............

» OUTRO
e|---------------------------|---------------------------|-----------------------------------------|
b|---------------------------|---------------------------|-----------------------------------------|
g|---------------------------|---------------------------|-----------------------------------------|
d|---------------------------|---------------------------|-----------------------------------------|
a|---------------------------|---------------------------|-----------------------------------------|
d|-0-0-0--0--0-0-0--0--0-0-0-|-0-0-0--0--0-0-0--0--0-0-0-|-0-0-0--0--0-0-0--0-5b-r-3-1-0-1-3-3-2-2-|
 
» GUITAR SOLO (Ryhtym is CHORUS riff x2 for the 1st half of solo) 
e|----------------------------------------------------------| 
b|-15bf-15bh~~~~~--15br-p12----12---------------------------| 
g|--------------------------15----15-14-12-15gb-r-p12-------| 
d|----------------------------------------------------------| 
a|----------------------------------------------------14-13-| 
d|----------------------------------------------------------| 

e|------------------------------------------------------| 
b|------------------------------------------------------| 
g|------------------------------------------------------| 
d|------------------------------------------------5-----| 
a|--14-15-14-12-14-12-10-12-10-9-10-9-7-9-7-5-7-----7~~-| 
d|------------------------------------------------------| 
                                                 [...] 

(w/ Wah) 
e|15p12----12h15p12-15p12----12h15p12-|-15p12----12h15p12-15p12---12h15p12| 
b|------15----------------15----------|-------15----------------15--------| 
g|------------------------------------|-----------------------------------| 
d|------------------------------------|-----------------------------------| 
a|------------------------------------|-----------------------------------| 
d|------------------------------------|-----------------------------------| 

e|17p12----12h17p12-17p12----12h17p12-|-17p12----12h17p12-17p12---12h15h17| 
b|------15----------------15----------|-------15----------------15--------| 
g|------------------------------------|-----------------------------------| 
d|------------------------------------|-----------------------------------| 
a|------------------------------------|-----------------------------------| 
d|------------------------------------|-----------------------------------| 

e|-17p15p12-15p12----12---------------------------------------------------| 
b|----------------15----15p12-15p12----12---------------------------------| 
g|----------------------------------14----14p12-14p12----12---------------| 
d|----------------------------------------------------14----14p12-14p12---| 
a|----------------------------------------------------------------------14| 
d|------------------------------------------------------------------------| 

e|---------------------------------------|
b|---------------------------------------|
g|---------------------------------------|
d|-12------------------------5-----------|
a|----14p12-14p12\10h12p10\7---7p5-6*~~~-|
d|---------------------------------------|

» RYTHYM (for second half of solo)                                  
e|-----------------------------------------------------------------|
b|-----------------------------------------------------------------|
g|-----------------------------------------------------------------|
d|-----------------------------------------------------------------|
a|-0-0-0-0-0-0-0-0-1-1-1-1-1-1-1-1-0-0-0-0-0-0-0-0-3-3-3-3-3-3-3-3-| 
d|-0-0-0-0-0-0-0-0-3-3-3-3-3-3-3-3-2-2-2-2-2-2-2-2-1-1-1-1-1-1-1-1-|
   ...............................................................   

  /----ending-----\ 
e|-----------------|
b|-----------------|
g|-----------------|
d|-----------------|
a|-----------------|
e|-0-1-0-5-0-1-0-5-| 
   ...............

e|--------------------------------------------------| 
b|--------------------------------------------------| 
g|-----------------12b-r-10----10------------10b~~~-| 
d|--------------------------12----12-10-------------| 
a|--------------------------------------12-x--------| 
d|--------------------------------------------------| 

e|------------------------------------------------------------------------| 
b|------------------------------------------------------------------------| 
g|-10\9-9-9-7-7-7-5-5/7-7/9-9/10-10\9-9/10-10/12-12/10-10/12-12-----------| 
d|------------------------------------------------------------------------| 
a|------------------------------------------------------------------------| 
d|------------------------------------------------------------------------| 

e|-17-------20gbf-20b-20b-20b-20br-b-20br-17----17---------------| 
b|----20-17----------------------------------20----20-17-18-17~~-| 
g|---------------------------------------------------------------| 
d|---------------------------------------------------------------| 
a|---------------------------------------------------------------| 
d|---------------------------------------------------------------|
Composición de Lamb of God
Colaboración y revisión:
  • Diego Siqueira
52 vistas
    • ½ Tono
    • A
    • Bb
    • B
    • C
    • Db
    • D
    • Eb
    • E
    • F
    • F#
    • G
    • Ab
  • Agregar a la lista

    0 comentarios

    Ver todos los comentarios

    ¿Lograste tocar?

    1 Tocaron 0 Aún no

    ¡Graba un video tocando Pathetic y envíanoslo!

    00:00 / 00:00
    Outros vídeos desta música
    Repetir Calidad Automático
    Outros vídeos desta música
    00:00 / 00:00
    Automático
    OK