Cifra Club

Sorriso do lagarto

Lan Lan E Os Elaines

Cifrado: Principal (guitarra y guitarra eléctrica)
tono: G
Parte A:
        B         B      B
e. |--------7--------7-------7------------------------------------------|
B. |--------7--------7-------7------------------------------------------|
G. |--------8--------8-------8------------------------------------------|
D. |--------9--------9-------9------------------------------------------|
A.      |--------9--------9-------9------------------------------------------| 
E. |------5s7------5s7-----5s7------5s7-5s7-----------------------------|

       Parte B:
           E      E       E
e. |-------7------7-------8-------------------------------------------------|
B. |-------9------9-------9-------------------------------------------------|
G. |-------9------9-------9-------------------------------------------------|
D. |-------9------9-------9-------------------------------------------------|
A. |-----5s7----5s7-----5s7-----5s7-5s7-------------------------------------|
E. |------------------------------------------------------------------------|

       Parte C:
           A      A     A               A
e. |-------5------5-----5---------------5------------------------------------|
B. |-------5------5-----5---------------5------------------------------------|
G. |-------6------6-----6---------------6------------------------------------|
D. |-------7------7-----7---------------7------------------------------------|
A. |-------7------7-----7---------------7------------------------------------|
E. |-----3s5----3s5---3s5---3s5-3s5---3s5---3s5-3s5--------------------------|

       Parte D:

        Cm/ Cm/ A/ B

       Parte E:

A. |------5s6-5s6-5s6--5s6s5s6-------------------------------------------|
E. |------6s7-6s7-6s7--5s6s5s6-------------------------------------------|

Dei meu amor
Você me maltratou
Sorriu dele, pisou, machucou
E não quis mais conversa

Disse que a vida mudara 
e que eu não tinha nada a ver 
com as pessoas que hoje lhe cercam

e eu que não sou nenhum mito 
me calo, não grito,fico aflito
pois nunca complico o que é muito normal

sou desligado como uma tomada
e o amor que eu sentira 
não valeu de nada,pois tudo se acaba como 
um seriado banal

e eu me entreguei em seus braços
você fez pouco caso, me deixando tão mal
um rei que hoje sofre calado
com um sonho acabado 
de um amor ideal

A B A B A B A B C A C A B A B A C A C C D E A B A B C A C A D D
00:00 / 00:00
Otros videos de esta canción
Repetir
Otros videos de esta canción
Composición de Marcio Mello
Colaboración y revisión:
  • Tania Souza
17 vistas
    • ½ Tono
    • A
    • Bb
    • B
    • C
    • Db
    • D
    • Eb
    • E
    • F
    • F#
    • G
    • Ab
  • Agregar a la lista

    0 comentarios

    Ver todos los comentarios

    ¿Lograste tocar?

    0 Tocaron 0 Aún no

    ¡Graba un video tocando Sorriso do lagarto y envíanoslo!

    00:00 / 00:00
    OK