Cifra Club

Bones

Landau

Cifrado: Principal (guitarra y guitarra eléctrica)
tono: G
E|--------------0---|
B|--------------0---|
G|--------------0---|
D|--------------2---|
A|--------------2---|
E|---3--2--0----0---|

Em
Sometimes this world is so cruel
              D
I can´t understand
Em
Always lookin for reasons
                 D
To fix some tragedies

C              D
Bones talks to me
C              D
Bones makes me fell

Alive

G                 D
My body is like a rock
                 Em    C
Trying to find a trace
          G
That´s my life
 D
Bones

G                       D
Doesn´t matter the sacrifice
                  Em    C
I always pay the price
          G
That´s my life
D               Em
Booooooones   Bones
Solo:
   Em                              D                        Em
E|-------------------------------------------------------------|
B|--7/8-8-8-7-7-8-8-----7/8-8-8-7---11b-9-11----5-7-8-7-5---5--|
G|--------------------------------7-----------7-----------7----|
D|-------------------------------------------------------------|
A|-------------------------------------------------------------|
E|-------------------------------------------------------------|

C              D
Bones talks to me
C              D
Bones makes me feel
       G
Alive
                  D
My body is like a rock
                 Em    C
Trying to find a trace
          G
That´s my life                        
D                                      (2x)
Bones                                 

G                       D
Doesn´t matter the sacrifice
                 Em     C
I always pay the price
          G
That´s my life
D         Em
Bones  Bones
                             Em
E|---------------------------0-----|
B|--7/8-8-8-7-7-8-8----------0-----|
G|---------------------------0-----|
D|---------------------------2-----|
A|---------------------------2-----|
E|--------------------3-2-0--0-----|

Finaliza com:
               Em
              Bones
E|--------------0---|
B|--------------0---|
G|--------------0---|
D|--------------2---|
A|--------------2---|
E|---3--2--0----0---|


00:00 / 00:00
Otros videos de esta canción
Repetir
Otros videos de esta canción
Composición de Landau / Washington Del Buffalo
Colaboración y revisión:
  • Marcão Bicudo
  • Flávio Landau
10 vistas
    • ½ Tono
    • A
    • Bb
    • B
    • C
    • Db
    • D
    • Eb
    • E
    • F
    • F#
    • G
    • Ab
  • Agregar a la lista

    0 comentarios

    Ver todos los comentarios

    ¿Lograste tocar?

    1 Tocaron 0 Aún no

    ¡Graba un video tocando Bones y envíanoslo!

    00:00 / 00:00
    OK