Cifra Club

Aprenda

Dança Livre

Larissa Luz

Tablatura: Principal (guitarra)
Tom: D
Intro: Riff 1

E|---------------------------------------------------|
B|---------------------------------------------------|
G|---------------------------------------------------|
D|-4-4-2-2-2-0-0-0-----------------------------------|
A|----------------4-4-1-1-1---1-1-1----1-2-----------|
E|--------------------------2------2--2--------------|

Riff 2

E|---------------------------------------------------|
B|---------------------------------------------------|
G|---------------------------------------------------|
D|-4-4-2-2-2-0-0-0-----------------------------------|
A|----------------4-4-1--1-1---1/2/1--1--4-4--2~~----|
E|---------------------------------------------------|

Bm                            F#
Chega na roda no balanço, eu sei que vai me ver!
                        Bm
Contato imediato: Eu e você!
                                F#
A dança é livre, agora é movimento lento...
                                      Bm
E penso: Isso quando é junto é muito intenso!
                     A
É só querer envolvimento,
      F#           Bm
Misturar o pensamento,
                       F#
Trocar cada pedaço de tempo,
                 Bm
Deixar o corpo fluir...

A
Me leva,
       G
Se entrega,
  F#          Bm
Pode se aproximar...
Bm                            A
Vontade de gritar pra todo mundo
                   F#                     Bm
Como sou feliz e gosto de poder te conquistar!
A
Me leva,
        G
Se entrega,
 F#           Bm
Pode se aproximar...
Bm
Te perco,
        A
Te espero,
     F#             Bm
Mas sei que vai voltar.
Compositor Larissa Luz / Nino Bezerra
Colaboración y revision:
  • Jefferson
    • ½ Tom
    • A
    • Bb
    • B
    • C
    • Db
    • D
    • Eb
    • E
    • F
    • F#
    • G
    • Ab
  • Adicionar à lista

    0 comentarios

    Mostrar mais comentários

    ¿Conseguiste tocar?

    0 Tocaron 0 Ainda não

    Grave um vídeo tocando Dança Livre e mande pra gente!

    00:00 / 00:00
    outros vídeos desta música
    repetir qualidade Automático
    Outros vídeos desta música
    00:00 / 00:00
    Automático
    OK