Cifra Club

Aprenda

Enano

Las Pastillas Del Abuelo

Tablatura: Principal (guitarra)
tono: D
INTRO
         D            Am     G   D
|-----|----2-3-2---------------3-2------|---2-3-2---------------2--|
|-----|----------3-------1---3----------|---------3-------1---3----|
|-----|.------------0----2-----------X3.|------------0----2--------|
|--0--|.-0---------------2-------0-----.|-0---------------2-----0--|
|-----|---------------0-----------------|--------------0-----------|
|-----|----------------------3----------|--------------------------|

Puente
  D         Am     D       G
|----------------------------------|
|-------3-----1-1-----3------3-3---|
|.---02---2---2-2--02---2----0-0--.| X4
|.-0----------2-2------------0-0--.|
|-----------0----------------------|
|--------------------------3-------|

*Sigue el Puente

No se quema con basura
siempre algo hay en su galera
vive loco en su cordura,
y siente mas que cualquiera.
Su droga es vivir a pleno,
se pica con humildad,
fuma consejos ajenos
y aspira sinceridad.

Bm      A                     G
 La vida lo educó a los bastonazos
Bm        A              G
 ya veces la muerte también
      D                          A
tuvo como profesor a un diablo bien pirata
                Bm                            G
que le enseño que en la vida no siempre es ganar.
             D          A                    G     A  Puente X4
El lo aprendió,lo masticó y por fin supo llorar...

*Sigue el Puente

Y un bobo muerde el anzuelo,
ese que te hace olvidar
como un dolor con conzuelo,
y cree que muerde caviar
D Am                  G
   pero este enano demente
D Am                   G
   sabe que la papa esta en 
D Am                    G
   no preguntar por el morfi
D Am                G
   sino en comer y disfrutar.

Bm      A                     G
 La vida lo educó a los bastonazos
Bm        A              G
 y aveces la muerte también...
      D                       A
Tuvo como profesor a su ángel de la guarda
                Bm                             G
que le enseño que un fracaso no siempre es perder
             D          A                  G     A
el lo aprendió,lo masticó y por fin supo reír...
           D
Y hoy el diablo y aquel ángel
           A                         Bm                         G
ven al pequeño saltamontes romper paredes con el bocho una vez mas
           D                A                              G     A  Puente X4 termina en D
van a brindar, por lo que fue su mayor creación de integridad.
Composição de Las Pastillas Del Abuelo
Colaboración y revision:
  • Francisco Andres
1.255 reproducciones
    • ½ Tono
    • A
    • Bb
    • B
    • C
    • Db
    • D
    • Eb
    • E
    • F
    • F#
    • G
    • Ab
  • Adicionar à lista

    0 comentarios

    Ver todos os comentários
    00:00 / 00:00
    outros vídeos desta música
    repetir qualidade Automático
    Outros vídeos desta música
    00:00 / 00:00
    Automático
    OK