Cifra Club

Será

Las Pelotas

Cifrado: Principal (guitarra y guitarra eléctrica)
Selo Cifra Club: esta cifra foi revisada para atender aos critérios oficiais da nossa Equipe de Qualidade.
tono: Cm (forma dos acordes no tom de Bm) Capotraste na 1ª casa
Con capo en el 1 traste
E|--------------------------------------|
B|--------------------------------------|
G|--------------------------------------|
D|------0-2-----0-2---------0-2--------2|
A|--0-0----------------0-0--------------|
E|----------0-0------------------0-0----|

E|-7-7-7-7--5-5-5-5-3-5-3-0-0-3-3-3-5-3-5-3-5-3-5-3-5-3|

E|-7-7-7-7--5-5-5-5-3-5-3-0-0-3-3-3-5-3-5-3-5-3-5-3-5-0|




Riff sobre A - Em X4


A             Em
Yo no sé todavía
    A                 Em
Lo que me hiciste sentir
G            A            Bm
 Es como la fiebre cuando quema

A               Em
Si la nube que arrastras
A                Em
Llegará un sitio final
G               A           Bm
 ¿Cuánto tiempo guardas un secreto?


  A            Em
Será por ti, será por mi
  A           Em
Será por todo lo que fuimos
A         Em        A   Em
 Hasta el amanecer
E|-7-7-7-7--5-5-5-5-3-5-3-0-0-3-3-3-5-3-5-3-5-3-5-3-5-3|

E|-7-7-7-7--5-5-5-5-3-5-3-0-0-3-3-3-5-3-5-3-5-3-5-3-5-0|


Riff sobre A - Em X4


A                  Em
Desde el monte que abrazo
A          Em
Camino sin explorar
G             A           Bm
 ¿Calmará la lluvia este desierto?

A                  Em
Con el alma en las manos
A           Em
Tratando de descubrir
G             A              Bm
 ¿Qué será de nuestro cuerpo alado?

A             Em
Será por ti, será por mi
A             Em
Será por todo lo que fuimos
A         Em
 Hasta el amanecer
Otros videos de esta canción
    65.675 exhibiciones
      • ½ Tono
      • Am
      • Bbm
      • Bm
      • Cm
      • C#m
      • Dm
      • Ebm
      • Em
      • Fm
      • F#m
      • Gm
      • G#m
    • Agregar a la lista

    Afinação da cifra

    Afinador online

      Ops (: Contenido disponible solo en portugués.
      OK