Cifra Club

Surrender

Lasgo

Cifrado: Principal (guitarra y guitarra eléctrica)
tono: C
Base solo(A5 A#5 F5)
e||-------------------------------------||I
B||-------------------------------------||N
G||-------------------------------------||T   
D||-------------------------------------||R
A||---7-4---7-4---8-5---8-5----5-2---5-2||O
E||-5-----5-----6-----6------3-----3----||

(A5 G5 F5)
You say that I can trust you
I don't know
Every time I'm near you
I lose control

I must be out of my mind
To let you in 
Maybe I should try to find
My strength within

REFRÃO

(A#5 F5 A5 )
It's only a matter of time
And I will surrender
Just give me a little more time
To open my mind
It's only a matter of time
And I will surrender
A5                  G5    F5
Surrender to youuuuuuuuuuuuu

Fears, I leave them far behind
To resist you, I don't know how
Love, sometimes can be unkind
Should I lay my heart on the line now

And when temptation comes along
I can't hide it, I can't fight it
Feelings inside are getting strong
Cannot deny it, you've got it

COMEÇA O SOLO ANTES DO REFRÃO
REPETE VARIAS VEZES ATE ACABAR A MÚSICA
e||-------------------------------------||
B||-------------------------------------||
G||-------------------------------------||  
D||-------------------------------------||
A||---7-4---7-4---8-5---8-5----5-2---5-2||
E||-5-----5-----6-----6------3-----3----||
(A#5 F5 A5)
It's only a matter of time
And I will surrender
Just give me a little more time
To open my mind
It's only a matter of time
 And I will surrender
Surrender to you
ACABA (A5 A#5 F5)
00:00 / 00:00
Otros videos de esta canción
Repetir
Otros videos de esta canción
Composición de Annemie Coenen / David Vervoort / Peter Luts
Colaboración y revisión:
  • Igor Anacleto
73 vistas
    • ½ Tono
    • A
    • Bb
    • B
    • C
    • Db
    • D
    • Eb
    • E
    • F
    • F#
    • G
    • Ab
  • Agregar a la lista

    0 comentarios

    Ver todos los comentarios

    ¿Lograste tocar?

    0 Tocaron 0 Aún no

    ¡Graba un video tocando Surrender y envíanoslo!

    00:00 / 00:00
    OK