Cifra Club

Yesterday

Lasgo

Cifrado: Principal (guitarra y guitarra eléctrica)
tono: D
(C#m A E)
Driving in my car, feeling alright
City Lights so bright, bring back my memories
Pictures of that night, holding you tight
Now you're so far away, light years away from me

(C#m A E)
Sometimes I feel
I feel you by my side
You are a part of me
Deep inside, oh I can feel
I feel that in the night you will return to me

(solo 2x) antes de "I Remember...” 
(acompanha ate antes de começar - "Sometimes I Feel”)
E|---------------------------------------------------------||
B|---------------------------------------------------------||
G|---------------------------------------------------------||
D|-----6----6----------------------------------------------||8x
A|--44---44-------7-----7-----7----7-----7-666-4-----------||
E|-------------55----55----77---77---77--------------------||

(C#m A E)
I remember how we danced into the light
I remember like it was yesterday
I remember how it felt to hold you tight
I remember like it was yesterday, like it was
Yesterday

(C#m A E)
Sometimes I feel
I feel you by my side
You are a part of me
Deep inside, oh I can feel
I feel that in the night you will return to me

(solo) começa em "Deep Inside”
E|---------------------------------------------------------||
B|---------------------------------------------------------||
G|---------------------------------------------------------||
D|--6---6---6---6-77-6-------------------------------------||6x
A|----4---4---4--------4-----------------------------------||
E|---------------------------------------------------------||

(solo) ao mesmo tempo q "I Remember”
E|---------------------------------------------------------||
B|---------------------------------------------------------||
G|---------------------------------------------------------||
D|-----6----6----------------------------------------------||
A|--44---44-------7-----7-----7----7-----7-666-4-----------||
E|-------------55----55----77---77---77--------------------||

(C#m A E)
I remember how we danced into the light
I remember like it was yesterday
I remember how it felt to hold you tight
I remember like it was yesterday, like it was yesterday
00:00 / 00:00
Otros videos de esta canción
Repetir
Otros videos de esta canción
Composición de Annemie Coenen / David Vervoort / Peter Luts
Colaboración y revisión:
  • Igor Anacleto
23 vistas
    • ½ Tono
    • A
    • Bb
    • B
    • C
    • Db
    • D
    • Eb
    • E
    • F
    • F#
    • G
    • Ab
  • Agregar a la lista

    0 comentarios

    Ver todos los comentarios

    ¿Lograste tocar?

    0 Tocaron 0 Aún no

    ¡Graba un video tocando Yesterday y envíanoslo!

    00:00 / 00:00
    OK