Cifra Club

Algo Más

Lasso

Cifrado: Principal (guitarra y guitarra eléctrica)
tono: Dm
INTRO
E|---6--6---5---5--------6--6---5---55------|
B|-----6-6-6-----6---------6-6-6-------6----|
G|------------------------------------------|
D|------------------------------------------|
A|------------------------------------------|
E|------------------------------------------|

    Bb                 F
E|----------------------5-----|
B|--3--3-4-6-3---3-4-6--------|
G|----------------------------|
D|----------------------------|
A|----------------------------|
E|----------------------------|

E|--5-6-5-x3--------| ----5-----|
B|-----6------------| X3     -----6----|
G|------------------| ----------|
D|------------------------------------|
A|------------------------------------|
E|------------------------------------|

Verso 1
Bb                             F
Yo creo en el bien, creo en el mal
Bb                            F
Yo creo en tratar, creo en errar

Am       Bb            C            Dm
 Todo es    tan simple    antes de ser complicado
Am       Bb         C          F
 Nada es    ni será    para siempre

Bb                            F
No puedo evitar que haya un final
Bb                            F
No puedo esconder lo que es real

      Dm                                C
E|-------------------------------------------------------|
B|-------------------------------------------------------|
G|-------------------------------------------------------|
D|-12-13-14-15-15-15--------10-11-12-14-14-14------------| x2
A|-------------------------------------------------------|
E|-------------------------------------------------------|

CORO (arpegio en cada nota de la 1ra a la 3ra cuerda)

          Dm             C               Bb            F F C F F C
Y sin sonreír, debo entender que no cambiará, no volverás
Dm               C             Bb              F F C F F C F F C Dm
    Y en conclusión la vida no es más que esperar
                     Dm  C
Que hay algo más

Verso 2
Bb                     F
Tu cara ya no es familiar
Bb                       F
Tu voz ya no puedo recordar
Gm                      Dm
Cuando fue que yo te olvide
Gm                        F
Donde te perdí nunca te hallé

Am       Bb            C            Dm
 Todo es    tan simple    antes de ser complicado
Am       Bb         C          F
 Nada es    ni será    para siempre

      Dm                                C
E|-------------------------------------------------------|
B|-------------------------------------------------------|
G|-------------------------------------------------------|
D|-12-13-14-15-15-15--------10-11-12-14-14-14------------| x2
A|-------------------------------------------------------|
E|-------------------------------------------------------|

CORO (arpegio en cada nota de la 1ra a la 3ra cuerda)

          Dm             C               Bb            F F C F F C
Y sin sonreír, debo entender que no cambiará, no volverás
Dm               C             Bb              F F C F F C F F C Dm
    Y en conclusión la vida no es más que esperar
                     Dm  C
Que hay algo más


Solo
   Bb      A    Dm     C    Bb              A         Dm      C        Bb
E|-------------------------------------------------------------------------|
B|--------------------------------------------------17b---18-18b---20-20b--|
G|--------------20b---18b---16b---16| 18-16h15----15------------------------|
D|-12b-12s18b-18---18-----18-----------------------------------------------|
A|-------------------------------------------------------------------------|
E|-------------------------------------------------------------------------|
            A       Dm     A
E|------------------------------|
B|-20b-20b-17--17-17b-16b-15s3--|
G|------------------------------|
D|------------------------------|
A|------------------------------|
E|------------------------------|

   Dm                   C
E|----------------------------------|
B|----------------------------------|
G|-7-8-9-10-10-10----5-6-7-9-9-9----| 2x
D|----------------------------------|
A|----------------------------------|
E|----------------------------------|

    Dm                              C
E|---------------------------------------------------------------|
B|---------------------------------------------------------------|
G|-7-8-9-10-10-10---7-8-9-10-10-10---5-6-7-9-9-9----5-6-7-9-9-9--|
D|---------------------------------------------------------------|
A|---------------------------------------------------------------|
E|---------------------------------------------------------------|
   Hay            tantas           cosas         que

    Dm                             C
E|---------------------------------------------------------------|
B|---------------------------------------------------------------|
G|-7-8-9-10-10-10---7-8-9-10-10-10---5-6-7-9-9-9----5-6-7-9-9-9--|
D|---------------------------------------------------------------|
A|---------------------------------------------------------------|
E|---------------------------------------------------------------|
   quisiera        escribirte      aquí

Dm          C     Bb        C
   Si tan solo  supera que decir
Dm               C             Bb              F F C F F C F F C Dm
    Y en conclusión la vida no es más que esperar
                     Dm  C   F
Que hay algo más
00:00 / 00:00
Otros videos de esta canción
Repetir
Otros videos de esta canción
Composición de Andres Lazo
12 vistas
    • ½ Tono
    • Am
    • Bbm
    • Bm
    • Cm
    • C#m
    • Dm
    • Ebm
    • Em
    • Fm
    • F#m
    • Gm
    • G#m
  • Agregar a la lista

    0 comentarios

    Ver todos los comentarios

    ¿Lograste tocar?

    0 Tocaron 0 Aún no

    ¡Graba un video tocando Algo Más y envíanoslo!

    00:00 / 00:00
    OK