Cifra Club

Souvenir

Lasso

Cifrado: Principal (guitarra y guitarra eléctrica)
tono: G#m
INTRO:

(Rasgueando...)
E|----------------------------|
B|---5-5-4------5--4--------4-|
G|-4-4-4-4-4-4--4--4--4-6-6-4-|
D|----------------------------|
A|----------------------------|
E|----------------------------|

(BIS)

ESTROF S:

C#m                          G#m
Dicen que cuando menos lo esperas
            F#               C#m
Alguien te cambia la vida entera
                            G#m
Años buscando y ahora que llegas
          F#
Pasa que no te quedas

PDC ORO:

C#m                  G#m      F#
Yo lo juré, solo un beso una vez
         C#m
Y ahora qué voy a hacer
     G#m             F#
Cuando tú ya no estés

CORO:

                          E               C#m
Sé que pensaste a corto plazo (woah oh oh oh)
                      G#m               F#
Y que tu viaje ya llegó a su fin, a su fin
                      E               C#m
Pero pasamos un buen rato (woah oh oh oh)
                     G#m            F#
Al menos llévame de souvenir, souvenir

Souvenir

(Rasgueando...)
E|----------------------------|
B|---5-5-4------5--4--------4-|
G|-4-4-4-4-4-4--4--4--4-6-6-4-|
D|----------------------------|
A|----------------------------|
E|----------------------------|

Souvenir

(Rasgueando...)
E|----------------------------|
B|---5-5-4------5--4--------4-|
G|-4-4-4-4-4-4--4--4--4-6-6-4-|
D|----------------------------|
A|----------------------------|
E|----------------------------|

ESTROF S:

C#m
Después de tanto juzgar y burlarme
G#m            F#
Del amor a distancia
C#m
Ahora me veo contando kilómetros
G#m                 F#
Husos horarios y escalas

PUENTE:

          C#m
No sé de dónde vienes ni para dónde vas
         G#m                    F#
Pero si lo permites te quiero acompañar
           C#m
Porque no quiero a otra por muy cerca que esté
       G#m            F#
Voy a volver a ti después

CORO.

PDC ORO.

CORO:

                          E               C#m
Sé que pensaste a corto plazo (woah oh oh oh)
                      G#m               F#
Y que tu viaje ya llegó a su fin, a su fin
                      E               C#m
Pero pasamos un buen rato (woah oh oh oh)
                     G#m            F#
Al menos llévame de souvenir, souvenir

                     E                  C#m
O solo llévate un pedazo (llévate un pedazo)
                      G#m                         F#
Para que pienses un poquito en mí (un poquito en mí)
                         E                   C#m
Ya que no soy tu largo plazo (soy tu largo plazo)
                     G#m            F#
Al menos llévame de souvenir, souvenir

                      E            C#m
Souvenir (Ya que no soy tu largo plazo)
                  G#m         F#
Souvenir (Déjame ser tu souvenir)

(Rasgueando...)
E|----------------------------|
B|---5-5-4------5--4--------4-|
G|-4-4-4-4-4-4--4--4--4-6-6-4-|
D|----------------------------|
A|----------------------------|
E|----------------------------|

                     E             C#m
Souvenir (Ya que no soy tu largo plazo)
                  G#m         F#
Souvenir (Déjame ser tu souvenir, souvenir)

(Rasgueando...)
E|----------------------------|
B|---5-5-4------5--4--------4-|
G|-4-4-4-4-4-4--4--4--4-6-6-4-|
D|----------------------------|
A|----------------------------|
E|----------------------------|

CIERD :

C#m                          G#m
Dicen que cuando menos lo esperas
            F#               E
Alguien te cambia la vida entera
00:00 / 00:00
Otros videos de esta canción
Repetir
Otros videos de esta canción
Composición de Andrés Vicente lazo Uslar, luis Jiménez, Agustín z
1.176 vistas
    • ½ Tono
    • Am
    • Bbm
    • Bm
    • Cm
    • C#m
    • Dm
    • Ebm
    • Em
    • Fm
    • F#m
    • Gm
    • G#m
  • Agregar a la lista

    0 comentarios

    Ver todos los comentarios

    ¿Lograste tocar?

    1 Tocaron 0 Aún no

    ¡Graba un video tocando Souvenir y envíanoslo!

    00:00 / 00:00
    OK