Cifra Club

Just Like Water

Lauryn Hill

Cifrado: Principal (guitarra y guitarra eléctrica)
tono: D
Isso se repete basicamente a música inteira:

   °  °  °  °    °       °    °
E--7-----7-----7_9---9--10--10~9--9
B--7-7----7---7-_8-8--8---8-----8--
G--8--8-8--8-8--_9--9--9---9-----9- x bis
D------9----9---_------------------
A-----------2---_7----------------7
D--7-----7------_------------------
  1a posição    2a posição



Quarto verso:
  °            °      ° ° °        °   °  ° °      °      °  °  °  °
E-11-----11----12----11   10---10--11--10   9---9--10   --7-----7-----7
B-10-10----10----10----   --9----9---9---   -8---8---   --7-7----7---7-
G-11---11----11----11-- x 10--10--10--10- x 9--9--9-- x --8--8-8--8-8--
D----------------------   ---------------   ---------   ------9----9---
A-9--------------------   8-------------8   7-------7   ---------------
D----------------------   ---------------   ---------   --7-----7------

Repete

  °            °      ° ° °        °   °  ° °      ° °°°
E-11-----11----12----11   10---10--11--10   9---9--10
B-10-10----10----10----   --9----9---9---   -8---8---
G-11---11----11----11-- x 10--10--10--10- x 9--9--9-- x
D----------------------   ---------------   ---------
A-9--------------------   8-------------8   7-------7
D----------------------   ---------------   ---------

   °  °  °  °    °       °°°°  °  °  °  °    °°°°
E--7-----7-----7_9---9--10   --7-----7-----7_9-
B--7-7----7---7-_8-8--8---   --7-7----7---7-_8-
G--8--8-8--8-8--_9--9--9-- x --8--8-8--8-8--_9-
D------9----9---_---------   ------9----9---_--
A---------------_7--------   ---------------_7-
D--7-----7------_---------  ---7-----7------_--

- °            °      ° ° °            °    °   °      ° °°°
E-13-----13----14----13   11----11----12---11   9---9--10
B-12-12----12----12----   10-10---10----10---   -8---8---
G-13---13----13----13-- x 11---11---11----11- x 9--9--9-- x
D----------------------   -------------------   ---------
A-11-----------------11   9-----------------9   7-------7
D----------------------   -------------------   ---------

   °  °  °  °
E--7-----7-----7_
B--7-7----7---7-_
G--8--8-8--8-8--_
D------9----9---_
A---------------_
D--7-----7------_
  1a posição

Repete:

  °            °      ° ° °            °    °   °      ° °°°
E-13-----13----14----13   11----11----12---11   9---9--10
B-12-12----12----12----   10-10---10----10---   -8---8---
G-13---13----13----13-- x 11---11---11----11- x 9--9--9-- x
D----------------------   -------------------   ---------
A-11-----------------11   9-----------------9   7-------7
D----------------------   -------------------   ---------

  °  °  °  °    °       °    °
E--7-----7-----7_9---9--10--10~9--9
B--7-7----7---7-_8-8--8---8-----8--
G--8--8-8--8-8--_9--9--9---9-----9- x bis
D------9----9---_------------------
A---------------_7----------------7
D--7-----7------_------------------
  1a posição       2a posição

  °            °      ° ° °            °    °   °      ° °°°
E-13-----13----14----13   11----11----12---11   9---9--10
B-12-12----12----12----   10-10---10----10---   -8---8---
G-13---13----13----13-- x 11---11---11----11- x 9--9--9-- x
D----------------------   -------------------   ---------
A-11-----------------11   9-----------------9   7-------7
D----------------------   -------------------   ---------
Composición de Lauryn Hill
Colaboración y revisión:
  • Luisa Girardi
81 vistas
    • ½ Tono
    • A
    • Bb
    • B
    • C
    • Db
    • D
    • Eb
    • E
    • F
    • F#
    • G
    • Ab
  • Agregar a la lista

    0 comentarios

    Ver todos los comentarios

    ¿Lograste tocar?

    0 Tocaron 0 Aún no

    ¡Graba un video tocando Just Like Water y envíanoslo!

    00:00 / 00:00
    Outros vídeos desta música
    Repetir Calidad Automático
    Outros vídeos desta música
    00:00 / 00:00
    Automático
    OK