Cifra Club

Drunk Motuh Kitchen Smile

Lawrence Arms

Tab de bajo: Principal
Tabbed by Max Guhlke 


INTRO    2x                   2x
G|----------------------------|---------------------------|
D|----------------------------|---------------------------|
A|-777777444444---------------|-777777444444--------------|
E|-------------7775h7-55575---|-------------77777755555555|

VERSE 4x
G|-----------------------|
D|-----------------------|
A|-7777777777------------|
E|-----------444444555575|

PRECHORUS 3x       1x
G|-------------------|-----------|
D|-------------------|-----------|
A|-44-44--22--00-----|-2222200000|
E|-------------------|-----------|

AUTUMN NIGHT... 2x
G|-------------------------|
D|-------------------------|
A|-444444------000000222222|
E|-------000000------------|

CHORUS
G|--------------------------|
D|-6---6---9---9------------|
A|4--44--77--77--7---7---797|
E|--------------5--55--77---|

VERSE 4x
G|-----------------------|
D|-----------------------|
A|-7777777777------------|
E|-----------444444555575|

PRECHORUS 3x 

BRIDGE   1x          3x
G|-----------------|------------------------|
D|-----------------|------------------------|
A|-44--000000222222|444444------000000222222|
E|-----------------|------000000------------|

A THOUSAND PRETTY LIGHTS ...2x                                2x
G|-----------------------------|--------------------------------|
D|-----------------------------|--------------------------------|
A|-7777777222222200000000000000|44444444222222220000000000000000|
E|-----------------------------|--------------------------------|

END
G|---------------------------------------|
D|---------22----------------------242---|
A|44-22-00000-44444444222222220-000----4\|
E|---------------------------------------|

Have Fun !
00:00 / 00:00
Otros videos de esta canción
Repetir
Otros videos de esta canción
Composición de The Lawrence Arms
11 exhibiciones
00:00 / 00:00
OK