Cifra Club

Raw And Searing Flesh

Lawrence Arms

Tab de bajo: Principal
Tabbed by Max Guhlke   (Max.G*)

Here´s another Version of that great song.
I saw Brendan live and he plays it like this :

G|----------------------------------------------------------|
D|-----4-4-------------4-4---------*--7-------------*-*-----|
A|-7-5--5-5-3-2-0----5--5-5-3------7-5--3-2-0-----*-5-3-#----5420020-*-|
A|-77------3-77--------3-77--------3---3-77--------3-|
E|---------------------------------------------------|

G|-----------0202424-----------0202454----7---4---|
D|---5420020-----------5420020-----------5---7----|
A|-77-------3--------77-------3---------7---5---3-|
E|------------------------------------------------|
00:00 / 00:00
Otros videos de esta canción
Repetir
Otros videos de esta canción
Composición de The Lawrence Arms
85 exhibiciones
00:00 / 00:00
OK