Cifra Club

Tuenstyles

Lawrence Arms

Tab de bajo: Principal
#---------------------------------------------------------------------#


Album: Ghost Stories
Transcribed by: Weeman
Email: *

Right this tab ain’t perfect its just a basic outline of the song but since there aren’t 
existing tabs you have no reason to complain.

-------------------------------------------------------------------------|
-7-7-5-5-4-4-------------------------------------------------------------|
-------------7-7---------------------------------------------------------|
-------------------------------------------------------------------------|
Intro X1

-------------------------------------------------------------------------|
-------------------------------------------------------------------------|
-------------------------------------------------------------------------|
-77777777-55555555-77777777-55555555-33333333-55555555-------------------|
Verse X4

--------------------------------------|
-------------------444444-------------|
-55555555-44444444--------77-55555555-|
--------------------------------------|
Bridge X2

-------------------------------------------------------------------------|
------------------5555555555555555------------------4--------------------|
-5555555555555555------------------5555555555555555---7-0----------------|
-------------------------------------------------------------------------|
Bridge X1

-------------------------------------------------------------------------|
-------------------------------------------------------------------------|
-------------------------------------------------------------------------|
-77777777-55555555-77777777-55555555-33333333-55555555-------------------|
Verse X4

-----------------------------------|
-----------------------------------|
-----------------------------------|
-2222222222222222-3333333333333333-|
Bridge X1

-----------------------------------------------|-------------------------|
-----------------------------------------------|-7-5-4-------------------|
-----------------------------------------------|-------------------------|
-77777777-101010101010101010-55555555-333333333|-------------------------|
Chorus (play till end)                          (thrown in occasionally)
00:00 / 00:00
Otros videos de esta canción
Repetir
Otros videos de esta canción
Compositor no encontrado.
10 exhibiciones
00:00 / 00:00
OK