Cifra Club

Education Sentimentale

Maxime Le Forestier

Cifrado: Principal (guitarra y guitarra eléctrica)
Selo Cifra Club: esta cifra foi revisada para atender aos critérios oficiais da nossa Equipe de Qualidade.
tono: Am
   Am                  Dm     G  G7         Am       Dm  C
E|---------------------------0-1-0---|-3-5-3-------------------------------|
B|-5-6-5-3-1-0-------0-1---3-------3-|-------6-5-3-------3-5-----6-5-3-----|
G|-------------2-1-2-----2-----------|-------------5-4-5------5--------5-5-|
D|-----------------------------------|-------------------------------------|
A|-----------------------------------|-------------------------------------|
E|-----------------------------------|-------------------------------------|

   F             G                 C    E           Am            Dm   G7
E|-5-4-5-7-8-5-7-5-7-8-10-7-----------|-4---4-5-7-4-5-4-5-7-8-10-8-7-8-8-|
B|--------------------------8-8-10-8-8|---7------------------------------|
G|------------------------------------|----------------------------------|
D|------------------------------------|----------------------------------|
A|------------------------------------|----------------------------------|
E|------------------------------------|----------------------------------|
Otros videos de esta canción
    66 exhibiciones
      • ½ Tono
      • Am
      • Bbm
      • Bm
      • Cm
      • C#m
      • Dm
      • Ebm
      • Em
      • Fm
      • F#m
      • Gm
      • G#m
    • Agregar a la lista

    Afinación de cifrado

    Afinador online

      OK