Cifra Club

Um Sonhador

Leandro & Leonardo

Cifrado: Principal (guitarra y guitarra eléctrica)
tono: C
[Intro] Dm  G7  C  Dm  G7  C  F  C

E|-----------------------------------------|
B|---8-------------------8-----------------|
G|7/9--9/7--5-----5/7-7/9--9/7--5------5---| (2x)
D|------------7--5----------------7--5-----|
A|-----------------------------------------|
E|-----------------------------------------|

E|------0p-5--3-1-0------------------------|
B|-----------------------------------------|
G|-----------------------------------------|
D|-----------------------------------------|
A|-----------------------------------------|
E|-----------------------------------------|

C
Eu não sei pra onde vou
                     Dm
Pode até não dar em nada
                    Bb  G7
Minha vida segue o sol
                       C    F  C
No horizonte dessa estrada

                       C
Eu nem sei mesmo quem sou
                  Dm
Nessa falta de carinho
                        Bb  G7
Por não ter um grande amor
                 C     C7
Aprendi à ser sozinho

                     F
E onde o vento me levar
                   C
Vou abrir meu coração
                   Dm
Pode ser que no caminho
                    F
Num atalho, num sorriso
     G7          C   C7
Aconteça uma paixão

   F  G  Am
E vou achar
                F
No toque do destino
                  C
O brilho de um olhar
              G7
Sem medo de amar
      F  G  Am
Não vou deixar
                F
De ser um sonhador
                    C
Pois sei vou encontrar
                      G7
No fundo dos meus sonhos
                         F
(sonhos, sonhos, sonhos, uuuu)
   G7          C
O meu grande amor

( Dm  G7  C  Dm  G7  C  F  C )

E|-----------------------------------------|
B|---8-------------------8-----------------|
G|7/9--9/7--5-----5/7-7/9--9/7--5------5---| (2x)
D|------------7--5----------------7--5-----|
A|-----------------------------------------|
E|-----------------------------------------|

E|------0p-5--3-1-0------------------------|
B|-----------------------------------------|
G|-----------------------------------------|
D|-----------------------------------------|
A|-----------------------------------------|
E|-----------------------------------------|

                     F
E onde o vento me levar
                   C
Vou abrir meu coração
                   Dm
Pode ser que no caminho
                    F
Num atalho, num sorriso
     G7          C   C7
Aconteça uma paixão

   F  G  Am
E vou achar
                F
No toque do destino
                  C
O brilho de um olhar
              G7
Sem medo de amar
      F  G  Am
Não vou deixar
                F
De ser um sonhador
                    C
Pois sei vou encontrar
                      G7
No fundo dos meus sonhos
                         F
Sonhos, sonhos, sonhos, uuuu
   G7          C
O meu grande amor
Composición de César Augusto / Piska
3.618 vistas
    • ½ Tono
    • A
    • Bb
    • B
    • C
    • Db
    • D
    • Eb
    • E
    • F
    • F#
    • G
    • Ab
  • Agregar a la lista

    0 comentarios

    Ver todos los comentarios
    00:00 / 00:00
    Otros videos de esta canción
    Repetir Calidad Automático
    Otros videos de esta canción
    00:00 / 00:00
    Automático
    OK