Cifra Club

Aprenda

Babe I'm Gonna Leave You

Led Zeppelin

Tab de bajo: Principal
standard tuning


G|----------------|----------------|----------------|----------------|
D|3---------------|2---------------|3---------------|2---------------|
A|----------------|----------------|----------------|----------------|
E|----------------|----------------|----------------|----------------|

G|2-------2-------|0-------0-------|----------------|----------------|
D|----------------|----------------|4-------4-------|3-------2-------|
A|----------------|----------------|----------------|----------------|
E|----------------|----------------|----------------|----------------|

G|2-222-2---2---2-|--2-2-2-2-2-2-2-|2-222-2---2---2-|--2-2-2-2-2-2-2-|
D|----------------|----------------|----------------|----------------|
A|----------------|----------------|----------------|----------------|
E|----------------|----------------|----------------|----------------| X2

G|2---------------|----------------|----------------|------------5---|
D|----------------|----------------|----------------|----------------|
A|----------------|----------------|----------------|----------------|
E|----------------|----------------|----------------|----------------|

G|2---------------|0---------------|----------------|----------------|
D|----------------|----------------|4---------------|3-------2-------|
A|----------------|----------------|----------------|----------------|
E|----------------|----------------|----------------|----------------| X5

G|2-222-2---2---2-|--2-2-2-2-2-2-2-|2-222-2---2---2-|--2-2-2-2-2-2-2-|
D|----------------|----------------|----------------|----------------|
A|----------------|----------------|----------------|----------------|
E|----------------|----------------|----------------|----------------| X2

G|2------2--------|2-------2-------|2-------2-------|2-------2-------|
D|----------------|----------------|----------------|----------------|
A|----------------|----------------|----------------|----------------|
E|----------------|----------------|----------------|----------------| X2

G|2-2-2-2-2---2---|0-0-0-0-0---0---|----------------|----------------|
D|----------------|----------------|4-4-4-4-4---4---|3-3-3-3-2---2---|
A|----------------|----------------|----------------|----------------|
E|----------------|----------------|----------------|----------------| X5

G|----------------|----------------|----------------|----------------|
D|3-3-3-3-3---3---|2-2-2-2-2---2---|3-3-3-3-3---3---|2-2-2-2-2---2---|
A|----------------|----------------|----------------|----------------|
E|----------------|----------------|----------------|----------------|

G|2-222-2---2---2-|--2-2-2-2-2-2-2-|2-222-2---2---2-|--2-2-2-2-2-2-2-|
D|----------------|----------------|----------------|----------------|
A|----------------|----------------|----------------|----------------|
E|----------------|----------------|----------------|----------------| X2

G|2---------------|0---------------|----------------|----------------|
D|----------------|----------------|4---------------|3-------2-------|
A|----------------|----------------|----------------|----------------|
E|----------------|----------------|----------------|----------------|

G|2---------------|0---------------|----------------|----------------|
D|----------------|----------------|4---------------|3-------2-------|
A|----------------|----------------|----------------|----------------|
E|----------------|----------------|----------------|----------------|

G|------------2---|0---------------|----------------|----------------|
D|----------------|----------------|4-------4-------|3-------2-------|
A|0---------------|----------------|----------------|----------------|
E|----------------|----------------|----------------|----------------|

G|--------2-------|0-------0-------|----------------|----------------|
D|----------------|----------------|4---------------|3-------2-------|
A|0---------------|----------------|----------------|----------------|
E|----------------|----------------|----------------|----------------|

G|------------2---|0---------------|----------------|----------------|
D|----------------|----------------|4---------------|3-------2-------|
A|0---------------|----------------|----------------|----------------|
E|----------------|----------------|----------------|----------------|

G|----------------|0---------------|----------------|----------------|
D|----------------|----------------|4---------------|3-------2-0-----|
A|0---------------|----------------|----------------|------------3-2-|
E|----------------|----------------|----------------|----------------|

G|--------2---2---|0-0-0-0-0---0---|----------------|----------------|
D|----------------|----------------|4-4-4-4-4---4---|3-3-3-3-2---2---|
A|0-0-0-0---------|----------------|----------------|----------------|
E|----------------|----------------|----------------|----------------| X2

G|2-----------2---|0---------------|----------------|----------------|
D|----------------|----------------|4---------------|3-------2-------|
A|----------------|----------------|----------------|----------------|
E|----------------|----------------|----------------|----------------|

G|----------------|0---------------|----------------|----------------|
D|----------------|----------------|4---------------|3-------2-------|
A|0---------------|----------------|----------------|----------------|
E|----------------|----------------|----------------|----------------|

G|------------2---|0---------------|----------------|----------------|
D|----------------|----------------|4---------------|3-------2-------|
A|0---------------|----------------|----------------|----------------|
E|----------------|----------------|----------------|----------------|

G|------------2---|0---------------|----------------|----------------|
D|----------------|----------------|4-4---4-4---4-4-|3-3-3-3-2-0-----|
A|0---------------|----------------|----------------|------------3-2-|
E|----------------|----------------|----------------|----------------|

G|--------2---2---|0-0-0-0-0---0---|----------------|----------------|
D|----------------|----------------|4-4-4-4-4---4---|3-3-3-3-2---2---|
A|0-0-0-0---------|----------------|----------------|----------------|
E|----------------|----------------|----------------|----------------| X2

G|------------2---|0-----------2-0-|------2-------2-|----------------|
D|----------------|----------------|4---------4-----|3-3---2---0-----|
A|0---------------|----------------|----------------|----3-------3-2-|
E|----------------|----------------|----------------|----------------|

G|------------2---|0---------------|------2---------|----------------|
D|----------------|----------------|4---4-----4---2-|3-------2---2---|
A|0-0-------------|----------------|----------------|----------------|
E|----------------|----------------|----------------|----------------|

G|------------2---|0---------------|----------------|----------------|
D|----------------|----------------|4---------------|3-------2---2---|
A|0---------------|----------------|----------------|----------------|
E|----------------|----------------|----------------|----------------|

G|------------2---|0---------------|----------------|----------------|
D|----------------|----------------|4---------------|3-------2---2---|
A|0---------------|----------------|----------------|----------------|
E|----------------|----------------|----------------|----------------|

G|------------2---|0-----------0---|----------------|----------------|
D|----------------|----------------|4---------------|3-----3-2---2---|
A|0---------------|----------------|----------------|----------------|
E|----------------|----------------|----------------|----------------|

G|------------2---|0---------------|----------------|----------------|
D|----------------|----------------|4---------------|3---3---2-0-----|
A|0---------------|----------------|----------------|------------3-2-|
E|----------------|----------------|----------------|----------------|

G|2-2-2-2-2---2---|0-0-0-0-0---0---|----------------|----------------|
D|----------------|----------------|4-4-4-4-4---4---|3-3-3-3-2---2---|
A|----------------|----------------|----------------|----------------|
E|----------------|----------------|----------------|----------------| X4
 
G|----------------|----------------|----------------|----------------|
D|3---------------|(3)-------------|2---------------|(2)-------------|
A|----------------|----------------|----------------|----------------|
E|----------------|----------------|----------------|----------------|

G|----------------|----------------|----------------|----------------|
D|3---------------|(3)-------------|2---------------|(2)-------------|
A|----------------|----------------|----------------|----------------|
E|----------------|----------------|----------------|----------------|

G|----------------|----------------|----------------|----------------|
D|----------------|----------------|----------------|----------------|
A|4-------4---4---|3-------3---3---|2-------2---2---|1-------1---1---|
E|----------------|----------------|----------------|----------------|

G|----------------|----------------|
D|----------------|----------------|
A|0---------------|(0)-------------|
E|----------------|----------------|
Compositor Anne Bredon / Jimmy Page / Robert Plant
156 reproducciones

0 comentarios

Mostrar mais comentários

¿Conseguiste tocar?

0 Tocaron 0 Ainda não

Grave um vídeo tocando Babe I'm Gonna Leave You e mande pra gente!

00:00 / 00:00
outros vídeos desta música
repetir qualidade Automático
Outros vídeos desta música
00:00 / 00:00
Automático
OK