Cifra Club

Battle Of Evermore

Led Zeppelin

Tablatura: Principal (guitarra)
Tom: G
Notation:
3__3 = tied note
3. = dotted quarter note
} = eight rest
/ = quarter rest
------|----------|----------|----------|----------|
D||--------|----------|----------|----------|----------|
A||----0---|--0---0---|--0---0---|--0---0---|--0---0---|
E||--- q --|- q - q --|- q - q --|- q - q --|- q - q --|

Oh, oh...
E|----------|----------|----------||
B|----------|----------|----------||
G|----------|----------|----------||
D|----------|----------|----------||
A|--0---0---|--0---0---|--0---0---||
E|- q - q --|- q - q --|- q - q --||


 Rhy. Fig. 7
   Aahhh..........
E||---------------------|--------------------||
B||-----1-1------1-1----|----1-1-----1-1-----||
G||@----2---2----2---2--|----2---2---2---2--@||Repeat 4x
D||@----2--------2------|----2-------2------@||
A||--0--------0---------|--0-------0---------||
E||---------------------|--------------------||


 Rhy. Fig. 8 Bring it
E||---------------------|--------------------||
B||-----0-0------0-0----|---0-0------0-0-----||
G||@----0---0----0---0--|---0---0----0---0--@||Repeat 4x
D||@----2--------2------|---2--------2------@||
A||---------------------|--------------------||
E||--0--------0---------|-0-------0----------||

 
[Play Rhy Fig. 1] 4x
back....bring it back....bring it back...


[Play Rhy. Fig. 4] 1x
Oh now, Oh now, Oh now...


[Play Rhy. Fig. 1] 1x
...bring it back....bring it back...


[Play Rhy. Fig. 4] 1x
Oh, now, Oh now, Oh now...


[Play Rhy. Fig. 1] 4x, then fade
Bring it, bring it, bring it, bring it, bring it......bring, yeah!
reproducciones 593
Acordes para:

    0 comentarios

    mostrar más comentarios

    ¿Conseguiste tocar?

    0 tocaron 0 aún no

    ¡Graba un vídeo tocando Battle Of Evermore y envianoslo!

    00:00 / 00:00
    outros vídeos desta música
    repetir qualidade Automático
    Outros vídeos desta música
    00:00 / 00:00
    Automático
    OK