Cifra Club

Bron Yr Aur

Led Zeppelin

Tablatura: Principal (guitarra)
Tom: C
  Bron-Yr-Aur

CACGCE Tuning                         Violão 
                                   |--------------------------3x-----|
E|----------------|----------------|----------------|----------------|
C|----------------|----0-----------|----0-----------|----0-----------|
G|----------------|--0-------0-----|--0-------0-----|--0-------0-----|
C|----------------|--------0-------|--------0-------|--------0-------|
A|--------------0-|3-------------0-|3-------------0-|3-------------0-|
C|----------------|------0---------|------0---------|------0---------|

E|------3-0-------|----------------|------0---------|----------------|
C|2---------2-----|------0---------|5-------------0-|------0---------|
G|--0---------0---|----0-------0---|--4-------4-----|----0-----------|
C|----2-----------|--0-------0-----|----0-------0---|--0-------0-----|
A|2-------2-----3-|3---------------|5-------5-------|3---------------|
C|----------------|----0---0-------|----------------|----0---0---0---|

E|------3-0-------|----------------|------0---------|----------------|
C|2---------2-----|------0---------|5-------------0-|------0---------|
G|--0---------0---|----0-------0---|--4-------4-----|----0-----------|
C|----2-----------|0---------0-----|----0-------0---|--0-------0-----|
A|2-------2-----3-|--3-------------|5-------5-------|3---------------|
C|----------------|----0---0-------|----------------|----0---0---0---|

E|--------------0-|----------------|--------------0-|----------------|
C|------0---------|0-----0---------|------0---------|0-----0---------|
G|0-----------0---|----0-------0---|0-----------0---|----0-------0---|
C|--0-------0-----|----------0-----|--0-------0-----|----------0-----|
A|----0---0-------|0-3-------------|----0---0-------|0-3-------------|
C|0-----------0---|--------0-------|0-----------0---|--------0-------|

E|------3-0-------|----------------|------0-------0-|----------------|
C|2---------2---0-|------0---------|5-------------0-|------0---------|
G|--0---------0---|--0-0-------0---|--4-------4---0-|----0-------0---|
C|----2-----2-----|----------0-----|----0-------0---|--0-------0-----|
A|2-------2-------|3---------------|5-------5-------|3---------------|
C|----------------|----0---0-------|----------------|----0---0-------|

E|----------------|----------------|----------------|----------------|
C|------0-------2-|------4-------0-|------0-------2-|------4-------0-|
G|----0-------0---|----4-------0---|----0-------0---|----4-------0---|
C|--0-------2-----|--4-------4-----|--0-------2-----|--4-------4-----|
A|3-------2-------|0-------0-------|3-------2-------|0-------0-------|
C|----------------|----------------|----------------|----------------|

E|----------------|----------------|----------------|----------------|
C|------0-------2-|------454-----45|4-----4-------5-|------4-------4-|
G|----0-------0---|----4-------4---|----4-------4---|----4-------4---|
C|--0-------2-----|--4-------4-----|--4-------4-----|--4-------4-----|
A|3-------2-------|0-------0-------|0-------0-------|0-------0-------|
C|----------------|----------------|----------------|----------------|

|-------------------------------------------------------2x-----------|
E|----------------|----------------|----------------|----------------|
C|5-----5-57----0-|------0-------0-|5-----5-57----0-|------0-------0-|
G|----5-------7---|----0-------0---|----5-------7---|----0-------0---|
C|--5-------7-----|--0-------0-----|--5-------7-----|--0-------0-----|
A|----------------|3---------------|----------------|3---------------|
C|5-------57------|--------0-------|5-------57------|--------0-------|


|-------------------------------------------------------2x-----------|
E|------3-0-------|----------------|------0-------0-|----------------|
C|2---------2---0-|------0---------|5-------------0-|------0---------|
G|--0---------0---|--0-0-------0---|--4-------4---0-|----0-------0---|
C|----2-----2-----|----------0-----|----0-------0---|--0-------0-----|
A|2-------2-------|3---------------|5-------5-------|3---------------|
C|----------------|----0---0-------|----------------|----0---0-------|

E|--------------0-|----------------|--------------0-|----------------|
C|------0---------|0-----0---------|------0---------|0-----0---------|
G|0-----------0---|----0-------0---|0-----------0---|----0-------0---|
C|--0-------0-----|----------0-----|--0-------0-----|----------0-----|
A|----0---0-------|0-3-------------|----0---0-------|0-3-------------|
C|0-----------0---|--------0-------|0-----------0---|--------0-------|

E|------3-0-------|----------------|------0-------0-|----------------|
C|2---------2---0-|------0---------|5-------------0-|------0---------|
G|--0---------0---|--0-0-------0---|--4-------4---0-|----0-------0---|
C|----2-----2-----|----------0-----|----0-------0---|--0-------0-----|
A|2-------2-------|3---------------|5-------5-------|3---------------|
C|----------------|----0---0-------|----------------|----0---0-------|

E|----------------|----------------|----------------|----------------|
C|------0-------2-|------454-----45|4-----0-------2-|4-----454-----0-|
G|----0-------0---|----4-------4---|----0-------0---|----4-------4---|
C|--0-------2-----|--4-------4-----|--0-------2-----|--4-------4-----|
A|3-------2-------|0-------0-------|3-------2-------|0-------0-------|
C|----------------|----------------|----------------|----------------|

E|----------------|----------------|----------------|----------------|
C|------0-------2-|------454-----45|4-----4-------5-|------4-------4-|
G|----0-------0---|----4-------4---|----4-------4---|----4-------4---|
C|--0-------2-----|--4-------4-----|--4-------4-----|--4-------4-----|
A|3-------2-------|0-------0-------|0-------0-------|0-------0-------|
C|----------------|----------------|----------------|----------------|

|--------------------------------------------------------2x----------|
E|----------------|----------------|----------------|----------------|
C|5-----5-57----0-|------0-------0-|5-----5-57------|------4-------5-|
G|----5-------7---|----0-------0---|----5-------7---|----4-------4---|
C|--5-------7-----|--0-------0-----|--5-------7-----|--4-------4-----|
A|----------------|3---------------|----------------|0-------0-------|
C|5-------57------|--------0-------|5-------57------|----------------|

E|----------------|----------------|----------------|--------------0-|
C|------4-------5-|------4-------5-|------4-------4-|------0-----0---|
G|----4-------4---|----4-------4---|----4-------4---|----0-----5-----|
C|--4-------4-----|--4-------4-----|--4-------4-----|--5-----7-------|
A|0-------0-------|0-------0-------|0-------0-------|7---------------|
C|----------------|----------------|----------------|----------------|

   Ritardo.                                           C
E|------0-------0-|------0-------0-|------0-------0-|0---------------|
C|----5-------5---|----5-------5---|----5-------5---|0---------------|
G|--7-------7-----|--7-------7-----|--7-------7-----|0---------------|
C|0-------0-------|0-------7-------|0-------7-------|0---------------|
A|----------------|----------------|----------------|3---------------|
C|----------------|----------------|----------------|0---------------|
reproducciones 113
Acordes para:
    Composição: Jimmy Page Colaboración y revision:
    • Reverb 2000

    0 comentarios

    mostrar más comentarios

    ¿Conseguiste tocar?

    1 tocaron 0 aún no

    ¡Graba un vídeo tocando Bron Yr Aur y envianoslo!

    00:00 / 00:00
    outros vídeos desta música
    repetir qualidade Automático
    Outros vídeos desta música
    00:00 / 00:00
    Automático
    OK