Enviar cifraEntrar

Communication Breakdown

Led Zeppelin

Acordes: Principal
reproducciones 1.414
Tono: A
Riff:

  E                  D     A   D    E                  D     A   D
E|----------------|----------------|----------------|----------------|
B|----------------|--7-----5---7---|----------------|--7-----5---7---|
G|----------------|--7-----6---7---|----------------|--7-----6---7---|
D|----------------|--7-----7---7---|----------------|--7-----7---7---|
A|----------------|--5-----7---5---|----------------|--5-----7---5---|
E|0-0-0-0-0-0-0-0-|0-------5-------|0-0-0-0-0-0-0-0-|0-------5-------|


Riff Refrão:

   A7
E|---------------5-|--------------5-|--------------5-|----------------|
B|---------------5-|--------------5-|--------------5-|----------------|
G|---------------6-|--------------6-|--------------6-|----------------|
D|---------------7-|--------------7-|--------------7-|----------------|
A|-7-7-9-7-7-9---7-|--7-9-7-7-9---7-|---7-9-7-7-9--7-|--7-9-7-7-7-9-7-|
E|-5-5-5-5-5-5---5-|--5-5-5-5-5---5-|---5-5-5-5-5--5-|--5-5-5-5-5-5-5-|


  B7
E|-----------------7-|-----------------7-|-----------------7-|-----------------|
B|-----------------7-|-----------------7-|-----------------7-|-----------------|
G|-----------------8-|-----------------8-|-----------------8-|-----------------|
D|-----------------7-|-----------------7-|-----------------7-|-----------------|
A|-9-9-11-9-9-9-11-9-|-9-9-11-9-9-9-11-9-|-9-9-11-9-9-9-11-9-|--9-11-9-9-9-11--|
E|-7-7-7--7-7-7-7--7-|-7-7-7--7-7-7-7--7-|-7-7-7--7-7-7-7--7-|--7-7--7-7-7-7-0-|


Intro: (Riff 2x)

Verso:
(Riff)
Hey, Girl,  Stop what you're doin'
(Riff)
Hey, Girl,  You'll drive me to ruin
(Riff)
I don't know what it is I like about you, but I like it alot
(Riff)
Oh, to let me hold you,  Let me feel you lovin charms.

Refrão:
 (Riff Refrão)
Communication breakdown its always the same

I'm havin' a nervous breakdown .. drive me insane

(Riff)

Verso:
(Riff)
Hey, Girl,  I got something I think you ought to know
(Riff)
Hey,  babe,  I wanna tell you that I love you so
(Riff)
I wanna hold you in my arms,  yeah
(Riff)
I'm never gonna let you go       'cause I like your charms

(Refrão)

Solo:

E|---12------------14--------------------------12---------------------|
B|12----151212-----12-1512121212-12-151212--12----151212--------------|
G|16----------1416------------------------14------------14------------|
D|--------------------------------------------------------------------|
A|--------------------------------------------------------------------|
E|--------------------------------------------------------------------|


E|-------------------------12--------12---------------------------------|
B|12-12-15----12-12-151212------12---12------------------------------12-|
G|---------14-----------------------------1412---14-13---------12-15----|
D|--------------------------------------------14-------14-12-14---------|
A|----------------------------------------------------------------------|
E|----------------------------------------------------------------------|


                                                    /---3--\/---3---\------|
E|12----12----12---12---17---15---12----12----------12---------------------|
B|---15----15------------------------15----------12------------------------|
G|-----------------------------------------14-16---------16-14-12----14-12-|
D|----------------------------------------------------------------14-------|
A|-------------------------------------------------------------------------|
E|-------------------------------------------------------------------------|


E|-----9----9----9----------------------------------------------------|
B|---9-9-12-9-12-9----------------------------9--------------10-------|
G|-----------------12-11911-11-9----9-9-11-12---119---11-9-9----------|
D|12-----------------------------11----------------11-----------------|
A|--------------------------------------------------------------------|
E|--------------------------------------------------------------------|


E|---10------10-----------------------------9-9-7-7-0-----------------|
B|12-12---12----12-108--10-8----------------9-9-7-7-0-----------------|
G|--------------------9------9-8-9----------9-9-7-7-0-----------------|
D|--------------------------------------------------------------------|
A|--------------------------------------------------------------------|
E|---------------------------------12---0-----------------------------|


(Refrão)

(Riff)

Final:
 (Riff)
Communications Breakdown
  • 1
  • 2
  • 3
  • 4
  • 5
  • 6
  • 7
  • 8
  • 9
  • 10
  • 11
  • 12
    Acordes para:

      0 comentarios

        mostrar mas comentarios

        ¿Conseguiste tocar?

        4tocaron0aún no

        ¡Grave un vídeo tocando Communication Breakdown y envie para nosotros!

        00:00 / 00:00
        outros vídeos desta música
        repetirqualidadeautomática
        • automática
        Outro vídeos desta música
          00:00 / 00:00
          automática
          • automática
          3 versiones de Contrabajoreproduccionescontribuciones
          1 versión de Guitar Proformatodownloadscontribución
          cerrarplay/pause subir/bajar velocidad
            Acordes para:guitarra
            acordes
            cerrar
            OK