Cifra Club

Dancing Days

Led Zeppelin

Tablatura: Principal (guitarra)
Tom: G
                                        Dancing days
                                                                Led Zeppelin
Tom da intro: Sol Lídio

(2X):
    G5(11+)
---------------------------------------------------
----2-------3---2---3p2p0--------------------------
----0-----------------------0---3------------------
----0-----------------------0---3------------------
---------------------------------------------------
----3----------------------------------------------
. . . . 1 . . . 2 . . . 3 . . . 4 . . . 


---------------------------------------------------
----2-------3---2h3p2p0-6/7\5----------------------
----0----------------------------------------------
----0-------------------6/7\5----------------------
---------------------------------------------------
----3----------------------------------------------
. . . . 1 . . . 2 . . . 3 . . . 4 . . . 


---------------------------------------------------
----2-------3---2---3p2p0--------------------------
----0-----------------------0---3------------------
----0-----------------------0---3------------------
---------------------------------------------------
----3----------------------------------------------

(2X):
---------------------------------------------------
----2-------3---2---3p2p0--------------------------
----0-----------------------0---3------------------
----0-----------------------0---3------------------
---------------------------------------------------
----3----------------------------------------------
. . . . 1 . . . 2 . . . 3 . . . 4 . . . 


---------------------------------------------------
----2-------3---2h3p2p0-6/7\5----------------------
----0----------------------------------------------
----0-------------------6/7\5----------------------
---------------------------------------------------
----3----------------------------------------------
. . . . 1 . . . 2 . . . 3 . . . 4 . . . 

    G5(11+)                         C
---------------------------------------------------
----2-------3---2---3p2p0---0---3---5--------------
----0-----------------------0---3---5--------------
----0-----------------------0---3---5--------------
---------------------------------------------------
----3----------------------------------------------













[two versions]
Explanation:
~~~~~~~~~~~~
/ x         Slide up to x
\ x         Slide down to x
(x ^ y)     Bend up, from x to y            if notes are in parenthesises
(x v y)     Bend down, from x to y          they are hit once.
([x] ^ y)   Play y bent, [don't play x]
(x - y)     Pull off from y to x
(x h y)     Hammer-on from x to y
~~x,y       Trill x and y

============================================================================
 You need to remember that Jimmy Page has this "terrible" habit of
 recording a lot of guitar parts all together. I find this a real challenge
 to play one part that covers everything. Sometimes they are just differant
 sounds but the same part, or, differant parts combined to make a complex
 score. I think it is possible that all of this (EVERYTHING!) is slide,
 though I play it just picking. I have simply placed parts and labled them
 so you can put them where they need to be.
============================================================================


        ------Dancing Days------

============================================================================
               * Basically sliding off the string to open position.

:Intro         |   *    |  --- Repeat two times---
---------------|--------|--------------------------------------------------
-------(2 /3) 2 (/3\2 - 0)--------------(2 /3) 2 (/3\2 - 0)----------------
---------------|--------|--------------------------------------------------
---------------|--------|--------------------------------------------------
---------------------------------------------------------------------------
---------------------------------------------------------------------------


---------------------------------------------------------------------------
-------(2 /3)  (2/3\2 -0)--(/7  \5)-----------(2 /3) 2 (/3\2 - 0)----------
---------------------------------------------------------------------------
---------------------------(/7  \5)----------------------------------------
---------------------------------------------------------------------------
---------------------------------------------------------------------------


=============================================================================
            I found there many veriations on the hammers and pulls.
:Verse
---------------------------------------------------------------------------
-------0  3  5----- (5 h6) (6 -5)-------(/9 -7)--9 (9 -7)------------------
-------0  3  5-----  5------5------------/6------6  6----------------------
-------0  3  5-----  5------5------------/6------6  6----------------------
---------------------------------------------------------------------------
---------------------------------------------------------------------------


---------------------------------------------------------------------------
-----(/6 -5 h6)--(6 h8)---(5 h6)  5----------------------------------------
------/5----------5--------5------5----------------------------------------
------/5----------5--------5------5------5-7-5-7-5-------------------------
---------------------------------------------------------------------------
---------------------------------------------------------------------------


---------------------------------------------------------------------------
---------------6     (5 h6) (6 -5)-------(/9 -7)--9 (9 -7)------------------
---------------5      5      5------------/6------6  6----------------------
---------------5      5      5------------/6------6  6----------------------
---------------------------------------------------------------------------
---------------------------------------------------------------------------


---------------------------------------------------------------------------
-----(/6 -5 h6)--(6 h8)---(5 h6)  5----------------------------------------
------/5----------5--------5------5----------------------------------------
------/5----------5--------5------5------5-7-5-7-5-------------------------
---------------------------------------------------------------------------
---------------------------------------------------------------------------


---------------------------------------------------------------------------
--------------(6 -5)     6  (6 -5)-------(/5 -3)--6--3---5--3--------------
---------------5         5   5------------/3------3--3---3--3--------------
---------------5         5   5------------/3------3--3---3--3--------------
---------------------------------------------------------------------------
---------------------------------------------------------------------------


---------------------------------------------------------------------------
------(3 -2) -3--2-(3 h5)--(2 h3) -2---------------------------------------
-------2------2--2--2-------2------2---------------------------------------
-------2------2--2--2-------2------2-----2-3-2-3---------------------------
---------------------------------------------------------------------------
---------------------------------------------------------------------------


---------------------------------------------------------------------------
--------------(6 -5)     6  (6 -5)-------(/5 -3)--6--3---5--3--------------
---------------5         5   5------------/3------3--3---3--3--------------
---------------5         5   5------------/3------3--3---3--3--------------
---------------------------------------------------------------------------
---------------------------------------------------------------------------


---------------------------------------------------------------------------
------(3 -2) -3--2-(3 h5)--(2 h3) -2---------------------------------------
-------2------2--2--2-------2------2---------------------------------------
-------2------2--2--2-------2------2-----2-3-2-3-(or 2-3-2-2-3-2)---------------------
---------------------------------------------------------------------------
---------------------------------------------------------------------------

=============================================================================

:Solo line over Verse
------------------------8------8---/9--(9/11)--\8--------------------------
------------------5--8--8------8---/9--(9/11)--\8--------------------------
---------------5-----------------------------------------------------------
------------5--------------------------------------------------------------
------3-/7-----------------------------------------------------------------
---------------------------------------------------------------------------


------------------------8--------------------------------------------------
------------------5--8--8--------------------------------------------------
---------------5------------------(17\15)------(15/17)--14-----------------
------------5---------------------(17\15)------(15/17)--14-----------------
------3-/7-----------------------------------------------------------------
---------------------------------------------------------------------------


------------------------8--------------------------------------------------
------------------5--8--8--------------------------------------------------
---------------5------------------(17\15)------(15/17)--14-----------------
------------5---------------------(17\15)------(15/17)--14-----------------
------3-/7-----------------------------------------------------------------
---------------------------------------------------------------------------

============================================================================

:Solo
---------------------------------------------------------------------------
---------------------------------------------------------------------------
------0--3--/5------3--0--3--/5--6-----------6-8-(8 ^ 10)--8-8-------------
------0--3--/5------3--0--3--/5--6-----------------------------------------
---------------------------------------------------------------------------
---------------------------------------------------------------------------


---------------------------------------------------------------------------
---------------------------------------------------------------------------
------(8 ^ 10)--(8 ^ 10)--8-8-------(8 ^ 10)--(8 ^ 10)-8-8-6-6-8-6-5-------
---------------------------------------------------------------------------
---------------------------------------------------------------------------
---------------------------------------------------------------------------
                          
                          ---or---

---------------------------------------------------------------------------
---------------------------------------------------------------------------
------0--3--/5------3--0--3--/5--6-------(6/8) /10--/10--8-8---------------
------0--3--/5------3--0--3--/5--6-------(6/8) /10--/10--8-8---------------
---------------------------------------------------------------------------
---------------------------------------------------------------------------


----------------------------------------------------------------8----------
---------------------------------------------------------5---5-8-----------
-----/10--/10--8-8---------/10--/10--8-8-6-(6/8\6)-5----5------------------
-----/10--/10--8-8---------/10--/10--8-8-6-(6/8\6)-5---5-------------------
---------------------------------------------------------------------------
---------------------------------------------------------------------------


------(9/10)--9--(9/10\7)   ( over and over)-------------------------------
---------------------------------------------------------------------------
---------------------------------------------------------------------------
---------------------------------------------------------------------------
---------------------------------------------------------------------------
---------------------------------------------------------------------------




Dancing Days by Led Zeppelin

This song has at least three guitars, tuned with their high E's to D:
EADGBD

The opening rhythm is  played almost exactly the same by two guitars:
With this rhythm figure:      And the slide on the third measure:
d-0----------0---------------------------------------------------------
B|-2-3-2--3p2-0---------------------------5/7\5-------------------------
G|-0-0-0--0---0---------------------------------------------------------
D|-0-0-0--0---0---------------------------5/7\5-------------------------
A|----------------------------------------------------------------------
E|----------------------------------------------------------------------

During the vocals, one guitar does this Chuck Berry like thing:

d----------------------------------------------------------------------
B|----------------------------------------------------------------------
G|--5--5--7-7--5---6-6-8-8-6--5-5-7-7-5-5-------------------------------
D|--3--3--3-3--3---4-4-4-4-4--3-3-3-3-3-3-------------------------------
A|----------------------------------------------------------------------
E|----------------------------------------------------------------------

And during the "You know its alright" stuff:
d----------------------------------------------------------------------
B|----------------------------------------------------------------------
G|-5-5-7-7-5---3-3--5-5--3--2-2-3-3-2--2--------------------------------
D|-3-3-3-3-3---1-1--1-1--1--0-0-0-0-0--0--------------------------------
A|----------------------------------------------------------------------
E|----------------------------------------------------------------------

The other guitar plays this:

d--7--5--7-7--5---8--6--8-8--6---7--5--7--7--5-------------------------
B|--6--5--6-6--5---8--6--8-8--6---6--5--6--6--5-------------------------
G|--5--5--5-5--5---6--6--6-6--6---5--5--5--5--5-------------------------
D|----------------------------------------------------------------------
A|----------------------------------------------------------------------
E|----------------------------------------------------------------------
And during the "You know its allright" part:

d---7-5--7-7--5---5--3--5--5--3--3-2--3-3---5p3p2----------------------
B|---6-5--6-6--5---5--3--5--5--3--3-2--3-3---2--------------------------
G|---5-5--5-5--5---3--3--3--3--3--2-2--2-2---2--------------------------
D|----------------------------------------------------------------------
A|----------------------------------------------------------------------
E|----------------------------------------------------------------------

The ascending riff during the vocals is:

d--------------8-----8-8/10---10/11\8----------------------------------
B|----------5-8------------------------------17\15----17\14-------------
G|--------5----------------------------------17\15----17\14-------------
D|------5------------------------------------17\15----17\14-------------
A|--5/7-----------------------------------------------------------------
E|----------------------------------------------------------------------

The solo goes something like this:
d----------------------------------------------------------------------
B|----------------------------------------------------------------------
G|---3-0-0-3-0-5-0-6----8/10--8/10--8--8/10--8/10-8--8/10-8/10-8-6-8-8/10
D|----------------------------------------------------------------------
A|----------------------------------------------------------------------
E|----------------------------------------------------------------------

d----------------------------------------------------------------------
B|----------------------------------------------------------------------
G|-2/5------------------------------------------------------------------
D|----------------------------------------------------------------------
A|----------------------------------------------------------------------
E|----------------------------------------------------------------------

Then just play the rythym riff up here:

d---11--12--11-12p11p9-------------------------------------------------
B|----------------------------------------------------------------------
G|----------------------------------------------------------------------
D|----------------------------------------------------------------------
A|----------------------------------------------------------------------
E|----------------------------------------------------------------------
reproducciones 384
Acordes para:

    0 comentarios

    mostrar más comentarios

    ¿Conseguiste tocar?

    2 tocaron 0 aún no

    ¡Graba un vídeo tocando Dancing Days y envianoslo!

    00:00 / 00:00
    outros vídeos desta música
    repetir qualidade Automático
    Outros vídeos desta música
    00:00 / 00:00
    Automático
    OK