Cifra Club

Dazed And Confused

Led Zeppelin

Cifrado: Versão 2 (guitarra y guitarra eléctrica)
tono: C
Esse é o SOLO de umas das melhores musicas do Led Zeppelin.
Obrigado, Caio Bianchini. 

  /--3--- /--3--- /--3--- /--3---

E|--------------------------------------------------------------1512--
B|12--12-15-12-------12-15-12------1212-15-12-------12-15-12-12-------
G|15-----------14-16----------14-14-----------14-16-------------------
D|--------------------------------------------------------------------
A|--------------------------------------------------------------------
E|--------------------------------------------------------------------

  /--3--- /--3--- /--3--- /--3---
E|---15-12----15-12----15-12----15-12-----12-17-15-12----12-----------
B|12-------12-------12-------12-------121212----------15-151512-------
G|-------------------------------------------------------------14-----
D|--------------------------------------------------------------------
A|--------------------------------------------------------------------
E|--------------------------------------------------------------------

         /--3--  /--3-- /--3--  /--3--  /--3--  /--3--  /--3--  
E|--------------------------------------------------------------------
B|---------------------------15---------------------------------------
G|------12-14-12-14-12-14-17----17-14-12-14-12------------------------
D|---14----------------------------------------14-12-14-12-14-12----12
A|---------------------------------------------------------------14---
E|--------------------------------------------------------------------

               ~~~~~~~~~~~      /--3-         /--3-/--3-
E|--------------------------------------------------------------------
B|--------------------------------------------------------------------
G|-------------9----9-----7-977-76-6-5-6764643-4-2-204-2-0------------
D|1412------0---------------------------------------------------------
A|--------------------------------------------------------------------
E|--------------------------------------------------------------------

  /-----3-----
E|--------------------------------------------------------------------
B|--------------------------------------------------------------------
G|--------------------------------------------------------------------
D|0---0---2------0-2--0-2--0-2---0-0--23---------0-2-0----------------
A|--------------------------------------------------------------------
E|--------------------------------------------------------------------

                                            /--3-
E|----------------------------------------------15--------------------
B|------------------------------------------12------------------------
G|--------------------------------------------------------------------
D|3-----3-0-2---0-3---0-2---0-2-----0---------------------------------
A|--------------------------------------------------------------------
E|--------------------------------------------------------------------
Composición de Jimmy Page
241 vistas
    • ½ Tono
    • A
    • Bb
    • B
    • C
    • Db
    • D
    • Eb
    • E
    • F
    • F#
    • G
    • Ab
  • Agregar a la lista

    0 comentarios

    Ver todos los comentarios

    ¿Lograste tocar?

    0 Tocaron 0 Aún no

    ¡Graba un video tocando Dazed And Confused y envíanoslo!

    00:00 / 00:00
    Outros vídeos desta música
    Repetir Calidad Automático
    Outros vídeos desta música
    00:00 / 00:00
    Automático
    OK