Cifra Club

Dazed And Confused

Led Zeppelin

Cifrado: Versão 4 (guitarra y guitarra eléctrica)
tono: C
Words and Music by JIMMY PAGE

Slow Blues

  No chord
e|------------------|
B|------------------|
G|------------------|
D|---------5-4-3-2--|
A|------------------|
E|--0---------------| (Riff 1)

  N.C.
e|------------------|
B|------------------|
G|------------------|
D|------------------|
A|---------5-4-3-2--|
E|--0---------------| (Riff 2)

e|-----------|
B|-----------|
G|-----------|
D|--4--4--4--|
A|--2--2--2--|
E|-----------|

e|------------------------------------------------------|
B|------------------------------------------------------|
G|------2h4------------------------2h4------------------|
D|--2h4-----2h2-4----4----4----2h4-----2h4-4----4----4--|
A|--------------2----2----2----------------2----2----2--|
E|------------------------------------------------------|

e|-----------------------------------------------------|
B|-----------------------------------------------------|
G|------2h4------------------------2h4-----------------|
D|--2h4-----2h2-4----4----4----2h4-----2h4-------------|
A|--------------2----2----2----------------------------|
E|-----------------------------------------0--------0--|

Words:
1.Been Dazed and Confused for so long it's not true.
  Wanted a woman, never bargained for you.
  Lots of people talk and few of them know 
  Soul of a woman was created below. 

2.You hurt and abuse tellin' all of your lies. 
  Run around sweet baby, Lord how they hypnotize. 
  Sweet little baby, I don't know where you've been. 
  Gonna love you baby, here I come again. 

3.Every day I work so hard, bringin' home my hard earned pay 
  Try to love you baby, but you push me away. 
  Don't know where you're goin', only know just where you've been,
  Sweet little baby, I want you again. 

4.Been dazed and confused for so long, it's not true. 
  Wanted a woman, never bargained for you. 
  Take it easy baby, let them say what they will. 
  Will your tongue wag so much when I send you the bill?
Composición de Jimmy Page
Colaboración y revisión:
  • Marcelo Vieira
24 vistas
    • ½ Tono
    • A
    • Bb
    • B
    • C
    • Db
    • D
    • Eb
    • E
    • F
    • F#
    • G
    • Ab
  • Agregar a la lista

    0 comentarios

    Ver todos los comentarios

    ¿Lograste tocar?

    1 Tocaron 0 Aún no

    ¡Graba un video tocando Dazed And Confused y envíanoslo!

    00:00 / 00:00
    Outros vídeos desta música
    Repetir Calidad Automático
    Outros vídeos desta música
    00:00 / 00:00
    Automático
    OK