Cifra Club

Dazed And Confused

Led Zeppelin

Cifrado: Versão 3 (guitarra y guitarra eléctrica)
tono: E
Dazed and Confused Intro

Bassey bit
e|--------------------------------------|
B|--------------------------------------|
G|--------------------------------------|
D|---------5-4-3-2----------------------|
A|-------------------------5-4-3-2------|
E|--0----------------0------------------|

Repeat that a few times and go to:

Riff  B5       E5  B5  E5
e|-----------------------------------|
B|-----------------------------------|
G|-----------------2-4---------------|
D|---4-4-4-4---2-4-----2-4-----------|
A|---2-2-2-2-------------------------|
E|-----------------------------------|

This is my first tab so I hope everything goes well!
Any (good) comments please email me at *
Composición de Jimmy Page
Colaboración y revisión:
  • daniel petrovitch
218 vistas
    • ½ Tono
    • A
    • Bb
    • B
    • C
    • Db
    • D
    • Eb
    • E
    • F
    • F#
    • G
    • Ab
  • Agregar a la lista

    0 comentarios

    Ver todos los comentarios

    ¿Lograste tocar?

    1 Tocaron 0 Aún no

    ¡Graba un video tocando Dazed And Confused y envíanoslo!

    00:00 / 00:00
    Outros vídeos desta música
    Repetir Calidad Automático
    Outros vídeos desta música
    00:00 / 00:00
    Automático
    OK