Cifra Club

Dazed And Confused

Led Zeppelin

Tab de bajo: Versão 6
Bassit: John Paul Jones
Tuning: GDAE (standerd)
Timing: Main Riff, Chorus, Bridge, Outro 6/8 solo 4/4
Tabbed: Simon Skipper

I saw him play it live and i played it before so i know its all good (At least the main
riff) I play it alot anyway.
I can't spell, sorry for any confusion!



MAIN RIFF
Try to use one finger to keep the same tone and bend all the notes SLIGHTLY!

G|------------------------------|
D|------------------------------|
A|---10--9--8--7----5--4--3--2--|
E|-0--------------0-------------|

CHORUS
You can choose to do hammer-ons if you want

G|------------2-4---------------|
D|-a-a-a--2-4-----2-4-----------|
A|-2-2-2------------------------|
E|------------------------------|

End on A|-2- when going back to main riff

BRIDGE

I hate this bit but it's fun to improvise in
Mess around with this.

G|------------------------------|
D|-----------------------0------|
A|--2-2-2-2-0----2-2-2-2--------|
E|------------------------------|

SOLO
This bit gets tireing so the second choise is alot easier

Choice 1 for solo (The REAL Version)
G|--------------------------------|         
D|--------5h7-5------------5h7-5--|
A|-----5h7------7-------5h7-------|
E|--5h7--------------5h5----------|


Choice 2 for solo (The Tired Hand Version)
G|--------0h2-0----------0h2 0----|
D|-----0h2-----2------0h2---------|
A|--0h2------------0h2------------|
E|--------------------------------|

After solo
G|------------------------------|
D|--------------------0~--------|
A|--2~--2~-0~----2--------------|
E|------------------------------|


CHORUS

MAIN

OUTRO

G|---------------------------|
D|---------------------------|
A|---2-2-2-2-2--2-2-2-2-2----|   (,,) 
E|---------------------------|

		     a
End song on A|---2~


THE END!

any probs?
E-mail 
*
Composición de Jimmy Page
1 vistas

0 comentarios

Ver todos los comentarios

¿Lograste tocar?

0 Tocaron 0 Aún no

¡Graba un video tocando Dazed And Confused y envíanoslo!

00:00 / 00:00
Outros vídeos desta música
Repetir Calidad Automático
Outros vídeos desta música
00:00 / 00:00
Automático
OK