Cifra Club

D'Yer Mak'er

Led Zeppelin

Acordes: Principal
reproducciones 4.045
Tono: C

      C                   Am               F               G
E|------------10/12--|-----------7/8---|----------3/5--|---------5/7-| 
B|-------8-----------|------5----------|-----1---------|-----3-------| 
G|-----9---9---------|----5---5--------|---2---2-------|---4---4-----| 
D|--10---------------|--7--------------|-3-------------|-5-----------| 
A|-------------------|-----------------|---------------|-------------| 
E|-------------------|-----------------|---------------|-------------| 


C     Am       F
oh oh oh oh oh oh
G                  C
You don't have to go
     Am        F
oh oh oh oh oh
G                  C
You don't have to go
     Am       F
oh oh oh oh oh
G          Am
Baby please don't go
C    Am       F
ay ay ay ay ay ay
G                    C
All those tears I cry
   Am       F
ay ay ay ay ay
G                    C
All those tears I cry
Am          F
ay ay ay ay ay
G         Am
Baby please don't go
Am
When I read the letter
    G
you wrote It made me
mad mad mad
Am
When I read the news
        G
That it brought me
To made me
               Am
sad sad sad
                      G
But I still love you so
                 F
I can't let you go
          Am
I love you
ooh baby I love you
C     Am       F
oh oh oh oh oh oh
G                   C
Every breath I take
   Am
oh oh oh oh oh
G                  C
Every move I make
  Am        F
oh oh oh oh oh
G          Am
Baby please don't go
C    Am        F
ay ay ay ay ay ay
   G             C
You hurt me to my soul
   Am      F
ay ay ay ay
   G                  C
You hurt me to my soul
   Am    F
ay ay ay ay
G         Am
Honey please don't go

Solo


E|-------------------------------------------------10b12~--10-8------| 
B|---------------6b8-6-5----------10b12-10b12-10-8-------------------| 
G|--7b9~r7p5-------------7------9------------------------------------| 
D|-------------------------7~~---------------------------------------| 
A|-------------------------------------------------------------------| 
E|-------------------------------------------------------------------| 


E|-10b12--10-8-------------------------------------------------------| 
B|--------------8b10~~~r8----------------------------------8-10b12---| 
G|------------------------7b9r7p5---5~~--7b8~~~r7-5-5-5~~------------| 
D|--------------------------------7----------------------------------| 
A|-------------------------------------------------------------------| 
E|-------------------------------------------------------------------| 


E|--------------10b12~~----------------------------------------------| 
B|--10b12-10-8-------------------------------------------------------| 
G|-------------------------------------------------------------------| 
D|-------------------------------------------------------------------| 
A|-------------------------------------------------------------------| 
E|-------------------------------------------------------------------| 


C    Am        F
oh oh oh oh oh oh
G                C
You don't have go
   Am     F
oh oh oh oh
G                C
You don't have go
   Am    F
oh oh oh oh
G        Am              C
Baby please don't go
Acordes para:

    0 comentarios

      mostrar mas comentarios

      ¿Conseguiste tocar?

      7tocaron0aún no

      ¡Grave un vídeo tocando D'Yer Mak'er y envie para nosotros!

      00:00 / 00:00
      outros vídeos desta música
      repetirqualidadeautomática
      Outro vídeos desta música
        00:00 / 00:00
        automática
        OK