Cifra Club

Hot Dog

Led Zeppelin

Tablatura: Principal (guitarra)
Tom: C
G
Well I just got in to town today
C
To find my girl has gone away
G                                     D
She took the Greyhound in the general store

G
I searched myself, I searched the town
C
And when I finally did set down
G                 D          G
I found myself no wiser than before

She said we couldn't do no wrong
No other love could be so strong
She locked up my heart in the bottom drawer

Now, she took my heart, and she took my keys
>From in my old blue dungarees
And I'll never love old Texas anymore

D                        G
Now that my baby's gone, I don't know what to do
D                                         G
She took my love and walked right out the door
C                             G
And if I ever find that girl, I know one thing for sure
A                                     D
I'm gonna give her something like she never had before

I took her love at seventeen
A little late these days, it seems
But they said_________________before

I took her word, I took it all
I made the
Shouldn't let______________ more

Hot Dog

-----------------------0---------------------3-2-3-5-3---3-
-----------------3-2-3---3---------3-5---5-3---------------
-------2-4---4-2-------------5-4-5-------------------------
-5-4-5-----------------------------------------------------
-----------------------------------------------------------
-----------------------------------------------------------

-3------------7------------7---5)--(5-3-5)-5-------------
-----8-7-8-10-----8-7-8-10-------------------------------
---------------------------------------------------------
---------------------------------------------------------
---------------------------------------------------------
---------------------------------------------------------

---------------------------------------------------------
---------------------------------------------------------
---------------------------------------------------------
---------------------------------------------------------
---------------------------------------------------------
---------------------------------------------------------

---------------------------------------------------------
---------------------------------------------------------
-------2-4-2---------------------------------------------
-5-4-5-------5-4-5---5)----------------------------------
---------------------------------------------------------
---------------------------------------------------------

---------------------------------------------------------
---------------------------------------------------------
---------------------------------------------------------
---------------------------------------------------------
---------------------------------------------------------
---------------------------------------------------------

-----------------------------------------------2-3-2-3-5-3-
---------------------------------------3-5-3-5-------------
-------2-4-2-----------2-4-2-----5-4-5---------------------
-5-4-5-------5-4-5-4-5-------5-4---------------------------
-----------------------------------------------------------
-----------------------------------------------------------

-----15-13---------------------------------
-13)-------13)(----------------------------
----------------12-15-12-------------------
-------------------------------------------
-------------------------------------------
-------------------------------------------

Now that my baby's gone, I don't know what to do
She took my love and walked right out the door
And if I ever find that girl, I know one thing for sure
I'm gonna give her something like she never had before

I_________________ luck
I________________________ truck
But

I never did quite understand
All that junk about _____ _ands
But they just rolled my ____ right out the door
But they just rolled my ____ right out the door
But they just rolled my ____ right out the door

-----------------------------------------------------
-----------------------------------------------------
-------4^2^0-------------0---------4^2^0-------------
-5^4^5-------0---------0-----5^4^5-------0-----0---0-
-----------------3^2^3-----------------------5-------
-----------------------------------------------------

-----------------------------------------------2-3---
-----------------------------------------------3-0---
-------4^2^0-------------0---------4^2^0---0---2-0---
-5^4^5-------0---------0-----5^4^5-------0-----0-0---
-----------------3^2^3---------------------------2---
-------------------------------------------------3---
reproducciones 260
Acordes para:
    Composição: Jimmy Page / Robert Plant Colaboración y revision:
    • Renan Matzner

    0 comentarios

    mostrar más comentarios

    ¿Conseguiste tocar?

    1 tocaron 1 aún no

    ¡Graba un vídeo tocando Hot Dog y envianoslo!

    00:00 / 00:00
    outros vídeos desta música
    repetir qualidade Automático
    Outros vídeos desta música
    00:00 / 00:00
    Automático
    OK