Notificações Amigos pendentes

      Led Zeppelin

      How Many More Times

      51 reproducciones
      INTRO
      |--------|-----------------------|------------------------|-----------------------|
      |--------|*----------------------|-----------------------*|-----------------------|
      |--------|*-------7---5-------5--|--------7---5-------5--*|--------7---5-------5--|
      |--------|--O-------------7------|--O-------------7-------|--O-------------7------|
      
      |-----------------------|-----------------------|-----------------------|----------------------|
      |-----------------------|-----------------------|-----------------------|----------------------|
      |--------7---5-------5--|--------7---5-------5--|--------7---5-------5--|--------7---5-------5-|
      |--O-------------7------|--O-------------7------|--O-------------7------|--O-------------7-----|
      
                                                         ah
      |-----------------------|-----------------------|-----------------------|----------------------|
      |-----------------------|-----------------------|-----------------------|----------------------|
      |--------7---5-------5--|--------7---5-------5--|--------7---5-------5--|--------7---5-------5-|
      |--O-------------7------|--O-------------7------|--O-------------7------|--O-------------7-----|
      
                                                                             ah
      |-------------------|-----------------------|-----------------------|-----------------------|
      |-------------------|-----------------------|-----------------------|-----------------------|
      |--------7---5------|--------7---5-------5--|--------7---5-------5--|--------7---5-------5--|
      |--O-------------7--|--O-------------7------|--O-------------7------|--O-------------7------|
      
      |-------------------|-----------------------|-------------------|-----------------------|
      |-------------------|-----------------------|-------------------|-----------------------|
      |--------7---5------|--------7---5-------5--|--------7---5------|--------7---5-------5--|
      |--O-------------7--|--O-------------7------|--O-------------7--|--O-------------7------|
      
                                                                       how
      |-----------------------|-----------------------|-------------------|
      |-----------------------|-----------------------|-------------------|
      |--------7---5-------5--|--------7---5-------5--|--------7---5------|
      |--O-------------7------|--O-------------7------|--O-------------7--|
      
        many more...                                         treat me
         more times                                          treat me...
      |-----------------------|-----------------------|-----------------------|
      |*----------------------|-----------------------|-----------------------|
      |*-------7---5-------5--|--------7---5-------5--|--------7---5-------5--|
      |--O-------------7------|--O-------------7------|--O-------------7------|
      
                the  way...      wanna   do
         you       wanna...
      |-----------------------|-----------------------|-----------------------|
      |-----------------------|-----------------------|-----------------------|
      |--------7---5-------5--|--------7---5-------5--|--------7---5-------5--|
      |--O-------------7------|--O-------------7------|--O-------------7------|
      
                                           how many            give you...  
                                               well I
      |-----------------------|------------------------|-----------------------|
      |-----------------------|-----------------------*|-----------------------|
      |--------7---5-------5--|--------7---5-------5--*|--------7---5-------5--|
      |--O-------------7------|--O-------------7-------|--O-------------7------|
      
                      please               please              be true
      |-----------------------|-----------------------|-----------------------|
      |-----------------------|-----------------------|-----------------------|
      |--------7---5-------5--|--------7---5-------5--|--------7---5-------5--|
      |--O-------------7------|--O-------------7------|--O-------------7------|
      
      |-----------------------|-----------------------|-----------------------------|
      |-----------------------|-----------------------|-----------------------------|
      |--------7---5-------5--|--------7---5-------5--|--5--5-----5-----------------|
      |--O-------------7------|--O-------------7------|-----------------5--5-----5--|
      
                                           I'll...   all I've got...
                                                     all I've got...
      |-----------------------|-------------------|-----------------------|-----------------------|
      |-----------------------|-------------------|*----------------------|-----------------------|
      |--------7---5-------5--|--------7---5------|*-------7---5-------5--|--------7---5-------5--|
      |--O-------------7------|--O-------------7--|--O-------------7------|--O-------------7------|
      
         rings
         rings                   pearls
      |-----------------------|-----------------------|-----------------------|
      |-----------------------|-----------------------|-----------------------|
      |--------7---5-------5--|--------7---5-------5--|--------7---5-------5--|
      |--O-------------7------|--O-------------7------|--O-------------7------|
      
                                                                    I'll give...
                                                                    I've got...
      |-----------------------|-----------------------|------------------------|
      |-----------------------|-----------------------|-----------------------*|
      |--------7---5-------5--|--------7---5-------5--|--------7---5-------5--*|
      |--O-------------7------|--O-------------7------|--O-------------7-------|
      
         get you...                            I'm       sure
      |-----------------------|-----------------------|-----------------------|
      |-----------------------|-----------------------|-----------------------|
      |--------7---5-------5--|--------7---5-------5--|--------7---5-------5--|
      |--O-------------7------|--O-------------7------|--O-------------7------|
      
         sure                    crawl
      |-----------------------|-----------------------|-----------------------|
      |-----------------------|-----------------------|-----------------------|
      |--------7---5-------5--|--------7---5-------5--|--------7---5-------5--|
      |--O-------------7------|--O-------------7------|--O-------------7------|
      
                                                                   oh
      |-----------------------|-----------------------|--------|----------|--------|--------|
      |-----------------------|-----------------------|--9-----|----------|--7-----|--------|
      |--------7---5-------5--|--------7---5----------|--7-----|----------|--5-----|--------|
      |--O-------------7------|--O-------------7---7--|--------|----------|--------|--------|
      
      GUITAR SOLO
      |--------|--------|--------|-------|--------|------|--------|
      |--9-----|--------|--7-----|-------|--9-----|------|--7-----|
      |--7-----|--------|--5-----|-------|--7-----|------|--5-----|
      |--------|--------|--------|-------|--------|------|--------|
      
      |--------|--------|--------|-------|--------|------|--------|-------|
      |--------|--9-----|--------|--7----|--------|--9---|--------|--7----|
      |--------|--7-----|--------|--5----|--------|--7---|--------|--5----|
      |--------|--------|--------|-------|--------|------|--------|-------|
      
      |--------|--------|--------|-------|--------|------|
      |--------|--9-----|--------|--7----|--------|--9---|
      |--------|--7-----|--------|--5----|--------|--7---|
      |--------|--------|--------|-------|--------|------|
      
      |--------|--------|--------|-------|--------|------|--------|
      |--------|--7-----|--------|--9----|--------|--7---|--------|
      |--------|--5-----|--------|--7----|--------|--5---|--------|
      |--------|--------|--------|-------|--------|------|--------|
      
      |--------|--------|--------|-------|--------|------|
      |--9-----|--------|--7-----|-------|--9-----|------|
      |--7-----|--------|--5-----|-------|--7-----|------|
      |--------|--------|--------|-------|--------|------|
      
      (play 4 times)
      |-----------------------------|---------------------------|----------------------------|
      |*----------------------------|--------------------------*|----------------------------|
      |*--7---7--7--7--7---7--7--7--|--7---7--7--7--5---7---5--*|--7---7--7--7--7---7--7--7--|
      |-----------------------------|---------------------------|----------------------------|
      
      |---------------------------------|--------------------------------------|
      |---------------------------------|--------------------------------------|
      |--7---7--7--7--7--7--7--7--7--7--|--7--7--7--7--7--7--7--7--7--7--7--7--|
      |---------------------------------|--O-----------------------------------|
      
      |--------------------------------------|--9--9--9--7--7--7--------------------|
      |--------------------------------------|--------------------9--9--9--7--7--7--|
      |--------------------------------------|--------------------------------------|
      |--O--O--O--O--O--O--O--O--O--O--O--O--|--------------------------------------|
      
      |------------------------------------------------|--------|----------|---------|
      |--5--6---6--------------------------------------|--------|----------|---------|
      |-------------7---7---7---5---5---5--------------|--------|----------|--7\-----|
      |-------------------------------------7---7---7--|--O-----|----------|---------|
      
      |---------|--------|--------|--------|--------|--------|--9-----8--------------|--------|
      |---------|--------|--------|--------|--7--9--|--------|--------------9--------|--------|
      |---------|--7-----|--------|--7-----|--------|--7-----|--------------------7--|--7-----|
      |---------|--------|--------|--------|--------|--------|-----------------------|--------|
      
                                                                              I was a...
      |-----------|--------|--------|--------|--------|--------|--------|---------------|
      |-----------|--------|--------|--------|--------|--------|--------|---------------|
      |--4-----7--|--7-----|--------|--7-----|--------|--7-----|--------|--7------------|
      |-----------|--------|--------|--------|--------|--------|--------|---------------|
      
      |----------|--------|-----------|--------|---------7--9--|--------|-------------|--------|
      |----------|--------|--9--------|--------|--7--9---------|--------|--9---9------|--9-----|
      |----------|--7-----|-----------|--7-----|---------------|--7-----|----------7--|--------|
      |----------|--------|--------7--|--------|---------------|--------|-------------|--------|
      
                                            whoops! oh    Lord     did it again
      |--9--------|--------|----------|----------------|--------|---------------|--9-------9--|
      |--------9--|--------|----------|----------------|--------|---------------|------9------|
      |-----------|--7-----|----------|--7-------------|--------|--7------------|-------------|
      |-----------|--------|----------|----------------|--------|---------------|-------------|
      
                  ten children...                                                 got another...
      |--------|---------7----------9--|--------|--9---7--------------|--------|----------------|
      |--------|--7--9-------7--9------|--------|----------9---7------|--------|----------------|
      |--7-----|-----------------------|--7-----|------------------5--|--7-----|--5-------------|
      |--------|-----------------------|--------|---------------------|--------|------7---------|
      
         makes...
      |------------|--------------------------------------|---------------|
      |------------|--------------------------------------|---------------|
      |--7---5-----|--7--5--7--5--7--5--7--5--5--5--7--5--|--7-----7---7--|
      |------------|--------------------------------------|---------------|
      
         constant heaven                                        I know it's...
      |---------7---------9----------7--|---------------|--9--7---9--7-----------------|
      |--7--9---------9-------7--9------|---------------|----------------9--7---5------|
      |---------------------------------|--7-----7---7--|---------------------------5--|
      |---------------------------------|---------------|------------------------------|
      
         mind                I got a   little...     she's...
      |-----------|-----------------|----------9--|--------9------|--------9--9--|
      |-----------|-----------------|-------------|---------------|--------------|
      |--7-----7--|--7--------------|--7----------|--7---------7--|--7-----------|
      |-----------|------5---6---7--|-------------|---------------|--------------|
      
                                                                  but I'm...
      |--7--7-----------------------|----------------------|---------------------|
      |---------9--9---7--7---5--6--|----------------------|---------------------|
      |-----------------------------|--7---7--7--7--7---7--|--7---7-----7-----7--|
      |-----------------------------|----------------------|---------------------|
      
                  I got to give
      |--------------------------------|-----------------|-----------------|-----------------|
      |--------------------------------|-----------------|-----------------|-----------------|
      |--7-----7--7--7--7-----7--7--7--|--7---7---7---7--|--7---7---7---7--|--7---7---7---7--|
      |--------------------------------|-----------------|-----------------|-----------------|
      
      |-----------------|------------------------|----------------------------|
      |-----------------|------------------------|----------------------------|
      |--7---7---7---7--|--7---7--5-----5-----7--|--7---7---7--7--7--7--7--7--|
      |-----------------|------------7-----7-----|----------------------------|
      
      |--------------------------------------|--------------------------------------|
      |--------------------------------------|--------------------------------------|
      |--7--7--7--7--7--7--7--7--7--7--7--7--|--7--7--7--7--7--7--7--7--7--7--7--7--|
      |--------------------------------------|--------------------------------------|
      
      |--9---9---9---7---7---7--------------------------|
      |--------------------------9---9---9---7---7---7--|
      |-------------------------------------------------|
      |-------------------------------------------------|
      
                                                         oh rosie        oh girl 
      |-----------------------------------------------|---------------|---------------|
      |--5--6-----------------------------------------|---------------|---------------|
      |---------7---7---7---5---5---5-----------------|-----------7\--|-----------7\--|
      |---------------------------------7---7---7--O--|---------------|---------------|
      
         oh rosie        oh girl        steal away now           steal away
      |---------------|--------------|-------------7--9-------|-------------------|
      |---------------|--------------|------------------------|-------------------|
      |-----------7\--|----------7\--|--------------------7\--|---------------7\--|
      |---------------|--------------|------------------------|-------------------|
      
         steal away baby          steal away        little robert anthony wants to
      |------------------------|-----------------|-------------------------------------|
      |------------------------|-----------------|-------------------------------------|
      |--------------------7\--|-------------7\--|---------------------------------7\--|
      |------------------------|-----------------|-------------------------------------|
      
         come and play        why don't you...        steal away        alright
      |--------------------|-----------------------|-----------------|---------------|
      |--------------------|-----------------------|-----------------|---------------|
      |----------------7\--|-------------------7\--|-------------7\--|-----------7\--|
      |--------------------|-----------------------|-----------------|---------------|
      
         alright
      |--------------|--------------|---------9---------------|--------------------------------|
      |--------------|--------------|-------------7--9--7--9--|--------------------------------|
      |----------7\--|----------7\--|-------------------------|--7---7--7--5-------------------|
      |--------------|--------------|--5--7-------------------|---------------7-----5---3---O--|
      
                                     well they      call             me      the hun-
      |------------------------------------------|----------------------------------|
      |------------------------7--8--9--9--7--9--|----------------------------------|
      |--7---7--7--5--7-----7--------------------|--7---7--7--7--5-------5---7---5--|
      |------------------------------------------|-------------------7--------------|
      
               ter
      |------------------7---7--9--9--9---------|--------------------------------|
      |-----------------------------------7--9--|--------------------------------|
      |--5--7--7--7--7--------------------------|--7---7--7--7--5----------------|
      |-----------------------------------------|-------------------7---3--4--O--|
      
                                       they    call                    me          the
      |-------------------------------------|---------------------------------------------7--|
      |-------------------------------------|--------------------------------------8--9------|
      |---------------4--5---5--7--7---7----|--7-----7---7---7---5-----7---7---7-------------|
      |--4--5--6--7-------------------------|------------------------------------------------|
      
                                                           how I              got  my...
      |-------------------------------------------------|------------------------------------|
      |-------------------------------------------------|------------------------------------|
      |--7-----7---7---7---7-----5---------------7---7--|--7---7--7--7--5--------------------|
      |------------------------------7---5---O----------|---------------------7--5--O--5--7--|
      
                                              ain't   no     need...
      |-------------------7-----9----------|---------------------------------11-----|
      |----------7--8--9-------------------|--9---9---9---9-----9-----9---9------9--|
      |--7---7----------------------7---7--|-----------------9-----9----------------|
      |------------------------------------|----------------------------------------|
      
                                                ain't  no     need    to  run
      |-----9-----11-----11--------11--------|----------------------------------|
      |--9-----9------9------9--9---------9--|--7---------------------5---6--6--|
      |--------------------------------------|------4-----5---6---7-------------|
      |--------------------------------------|----------------------------------|
      
                         cause I've    got    you    in   the     sights    of     my
      |-----------------------------|------------------|-----------------|------------|-----|
      |--7---------------5----------|------------------|-----------------|------------|-----|
      |-----7-----7-----------------|--7---------------|-----------------|------------|-----|
      |--------5-----5--------------|--O---------------|-----------------|------------|-----|
      
         gun
      |----------|-----------|----------|----------|---------|--------------------|
      |----------|-----------|----------|----------|---------|--------------------|
      |----------|-----------|----------|----------|---------|------7---5------5--|
      |----------|-----------|----------|----------|--7\-----|--O----------7------|
      
                                                            how
      |-----------------|--------------------|-----------------|
      |-----------------|--------------------|-----------------|
      |------7---5------|------7---5------5--|------7---5------|
      |--O-----------7--|--O----------7------|--O-----------7--|
      
         many more...                                   barrel...     alnight...
         many more...                                                barrel...
      |--------------------|-----------------|--------------------|-----------------|
      |*-------------------|-----------------|--------------------|-----------------|
      |*-----7---5------5--|------7---5------|------7---5------5--|------7---5------|
      |--O----------7------|--O-----------7--|--O----------7------|--O-----------7--|
      
                                                                                           how
         night long                                                                      but I've
      |--------------------|-----------------|--------------------|------------------------------|
      |--------------------|-----------------|--------------------|-----------------------------*|
      |------7---5------5--|------7---5------|------7---5------5--|--5--5---5-------------------*|
      |--O----------7------|--O-----------7--|--O----------7------|-------------5--5-----5/------|
      
         got to get...
      |--------------------|---------------------|--------------------|--------------------|
      |--------------------|---------------------|--------------------|--------------------|
      |------7---5------5--|------7---5-------5--|------7---5------5--|------7---5------5--|
      |--O----------7------|--O-----------7------|--O----------7------|--O----------7------|
      
                    come  home
      |-------------------------|-----------------|--------------------|--7-------7--------------|
      |-------------------------|-----------------|--------------------|------7-------7-------7--|
      |------7---5------5-------|------7---5------|------7---5------5--|------------------7------|
      |--O----------7-----------|--O-----------7--|--O----------7------|-------------------------|
      
             I've got...      you baby                               why don't you...
      |--------------------|-----------------|--------------------|-------------------------|
      |--------------------|-----------------|--------------------|------4---7--------------|
      |------7---5------5--|------7---5------|------7---5------5--|--5---------------4---7--|
      |--O----------7------|--O-----------5--|--O----------7------|--------------5----------|
      
         home?                                                       why don't you...
      |--------------------|-----------------|--------------------|--9--11---9---7-----------------|
      |--------------------|-----------------|--------------------|-----------------9--11---9---7--|
      |------7---5------5--|------7---5------|------7---5------5--|--------------------------------|
      |--O----------7------|--O-----------7--|--O----------7------|--------------------------------|
      
         come home                               why don't you please    come home?
      |-------------|-------------------------|-----------------------|----------7--------------|
      |-------------|----------4---7----------|-----------------------|------7---------------7--|
      |-------------|--5---7---------------4--|-----------------------|--5---------------7------|
      |--O----------|------------------7------|--O--------------------|--------------5----------|
      
         home
      |---------|--------------------------|--------|--------|--------|
      |---------|--------------------------|--------|--------|--------|
      |---------|--5---5---5/--------------|--------|--------|--------|
      |--O------|---------------5---5---5--|--O-----|--O-----|--\-----|
      
      
      
      _______________________________________________________
      Contribuição: valdir felix junior(paulislivefaclube@ig.com.br)

      Comentarios 0

      140 .
      140 cancelar

      ¿conseguiste tocar?

      covers

      ¡Grave un vídeo tocando How Many More Times y envie para nosotros!

      Ex.: http://www.youtube.com/watch?v=0IvSvIwGdwk
      ver cover de otras canciones »
      0:00 / 0:00

      Capitulos

        1 versão de guitarra dificuldad reproducciones contribuición y correción
        1 versão de guitarra eléctrica dificuldad reproducciones contribuición y correción
        1 versão de cavaco dificuldad reproducciones contribuición y correción
        1 versão de teclado dificuldad reproducciones contribuición y correción
        4 versões de contrabajo reproducciones contribuición y correción
        3 versões de Guitar Proformatodownloadscontribuición
        play/pausefechar subir/bajar velocidad
        6ª cuerda E5ª cuerda A4ª cuerda D3ª cuerda G2ª cuerda B1ª cuerda E
          acordes
          publicidad
          cerrar
          ok