Cifra Club

I'm Gonna Crawl

Led Zeppelin

Tablatura: Principal (guitarra)
Tom: E
Intro
E|-----------------------------------------|-----------------------------------------|
B|-----------------------------------------|-----------------------------------------|
G|-----------------------------------------|-----------------------------------------|
D|-----------------------------------------|-----------------------------------------|
A|-----------------------------------------|-----------------------------------------|
E|-----------------------------------------|-----------------------------------------|

E|--------------3-5\3-|--------------3-5\3-|--------------3-5\3-|--------------3-5\3-|
B|----1-----4--3------|----1-----4--3------|----1-----4--3------|----1-----4--3------|
G|---0-0---5--4-------|---0-0---5--4-------|---0-0---5--4-------|---0-0---5--4-------|
D|--2---2-6--5--------|--2---2-6--5--------|--2---2-6--5--------|--2---2-6--5--------|
A|-3------------------|-3------------------|-3------------------|-3------------------|
E|--------------------|--------------------|--------------------|--------------------|

Verso
E|--------------3-5\3-|--------------3-5\3-|--------------3-5\3-|--------------3-5\3-|
B|----1-----4--3------|----1-----4--3------|----1-----4--3------|----1-----4--3------|
G|---0-0---5--4-------|---0-0---5--4-------|---0-0---5--4-------|---0-0---5--4-------|
D|--2---2-6--5--------|--2---2-6--5--------|--2---2-6--5--------|--2---2-6--5--------|
A|-3------------------|-3------------------|-3------------------|-3------------------|
E|--------------------|--------------------|--------------------|--------------------|

E|-5----------1-|----5----------1-|----5----------1-|----5------------|--------------|
B|-5----------1-|----5----------1-|----5----------1-|----5------------|--------------|
G|-5----------2-|----5----------2-|----5----------2-|----5------------|-2-2-2-2------|
D|--------------|-----------------|-----------------|-----------------|-3-3-3-3------|
A|--------------|-----------------|-----------------|-----------------|-3-3-3-3------|
E|----3-1/3\1--3|-3/5---3-1/3\1--3|-3/5---3-1/3\1--3|-3/5---3-1/3\1---|-1-1-1-1------|

Verse
E|--------------3-5\3-|--------------3-5\3-|--------------3-5\3-|--------------3-5\3-|
B|----1-----4--3------|----1-----4--3------|----1-----4--3------|----1-----4--3------|
G|---0-0---5--4-------|---0-0---5--4-------|---0-0---5--4-------|---0-0---5--4-------|
D|--2---2-6--5--------|--2---2-6--5--------|--2---2-6--5--------|--2---2-6--5--------|
A|-3------------------|-3------------------|-3------------------|-3------------------|
E|--------------------|--------------------|--------------------|--------------------|

E|--------------3-5\3-|--------------3-5\3-|-5----------1-|----5----------1-|
B|----1-----4--3------|----1-----4--3------|-5----------1-|----5----------1-|
G|---0-0---5--4-------|---0-0---5--4-------|-5----------2-|----5----------2-|
D|--2---2-6--5--------|--2---2-6--5--------|--------------|-----------------|
A|-3------------------|-3------------------|--------------|-----------------|
E|--------------------|--------------------|----3-1/3\1--3|-3/5---3-1/3\1--3|

E|----5----------1-|----5------------|-----|-2--2------0----|-----3-----------------|
B|----5----------1-|----5------------|-----|-3---3------3-3-|-------3-3-3-----------|
G|----5----------2-|----5------------|-7-5-|-2----2---2-----|-0---------------5-----|
D|-----------------|-----------------|-7-5-|-0-----0-0------|--------------/5-------|
A|-----------------|-----------------|-5-3-|----------------|--/5-------------------|
E|-3/5---3-1/3\1--3|-3/5---3-1/3\1---|-----|----------------|-----------------------|

E|------------------------------------|----------------------------------------|
B|------------------------------------|----------------------------------------|
G|------------------------------------|----------------------------------------|
D|-7-7-7-7-7-7-7-7-7-7-7-7-7-7-7-7----|----------------------------------------|
A|-7-7-7-7-7-7-7-7-7-7-7-7-7-7-7-7----|----------------------------------------|
E|-5-5-5-5-5-5-5-5-5-5-5-5-5-5-5-5--3-|-1/3\1----------------------------------|

E|------------------------------------|----------------------------------------|
B|------------------------------------|----------------------------------------|
G|------------------------------------|----------------------------------------|
D|-7-7-7-7-7-7-7-7-7-7-7-7-7-7-7-7----|----------------------------------------|
A|-7-7-7-7-7-7-7-7-7-7-7-7-7-7-7-7----|----------------------------------------|
E|-5-5-5-5-5-5-5-5-5-5-5-5-5-5-5-5--3-|-1/3\1----------------------------------|



 Solo (Guitarra)
E|-------------------------------|-----------------------5------------------------|
B|-------------------------------|---------------------5---8==p5-8p5--------------|
G|-------------7fb---------------|-7fb-7fbp5--------5-5-------------7p5-7p5-----5-|
D|-------------------------------|---------------5-7-7---------------------7-5-7--|
A|-------------------------------|------------6-7---------------------------------|
E|-------------------------------|------------------------------------------------|

                       ~~~~~~~~~~
E|-------------------------------|------------------------------------------------|
B|-------------------------------|--------------8-10-10b12.5r10--8-8--------------|
G|--7fb--------7fb---7fb---------|-7fbp5-----/9-----------------------------------|
D|-------------------------------|------------------------------------------------|
A|-------------------------------|------------------------------------------------|
E|-------------------------------|------------------------------------------------|

E|--------------------------------------|-----------7-8-7h8p7-------------------------|
B|-8fb---8fb8fbr8-6---5-6--5h6p5--------|----------8---------10-8h10p8\6--8p6\5-5h6-5-|
G|-------------------7----------7-5-5-7-|-5---5-5-9-----------------------------------|
D|------------------7--------------7----|---7-----------------------------------------|
A|--------------------------------------|---------------------------------------------|
E|--------------------------------------|---------------------------------------------|

E|------------------|-------------------------------5-7-8-7h8p7p5-|-8----8-10--10fb--|
B|------------------|-----------------5h6p5---5-6--8--------------|--10--------------|
G|-7-5-7-5----------|-------------5-7-------7---------------------|------------------|
D|--------7-7-5---5-|-7-5-7-5-7-----------------------------------|------------------|
A|---------7----7---|--7---7--------------------------------------|------------------|
E|------------------|---------------------------------------------|------------------|

E|-8---8-10------12-15-|-15fbR15fb--|--17fb--------------15-17=fb-17fb-|
B|--10---------13------|------------|-------15-15--/15-17--------------|
G|-----------14--------|------------|----------------------------------|
D|---------------------|------------|----------------------------------|
A|---------------------|------------|----------------------------------|
E|---------------------|------------|----------------------------------|

E|--17fbR17-15-----17-15-17-17fb-15--17-15-17/////---------------------|
B|--------------17-----------------------------------------------------|
G|---------------------------------------------------------------------|
D|---------------------------------------------------------------------|
A|---------------------------------------------------------------------|
E|---------------------------------------------------------------------|

E|-/12-12-12-12-12-/12-12-12-12-12-/12-12-12-12-12-12-----|
B|-/13-13-13-13-13-/13-13-13-13-13-/13-13-13-13-13-13-----|
G|-----------------------------------------------------12-|
D|--------------------------------------------------------|
A|--------------------------------------------------------|
E|--------------------------------------------------------|

E|----------------------------------------|
B|----------------------------------------|
G|-12\10--12fb--10---12fb--10-12-10/////--|
D|----------------------------------------|
A|----------------------------------------|
E|----------------------------------------|

E|-/12-12-12-12-12-/12-12-12-12-12-/12-12-12-12-12-12-12//---|---13~~~~~~~~~~~~--15fb-|
B|-/13-13-13-13-13-/13-13-13-13-13-/13-13-13-13-13-13--------|-13---------------------|
G|-------------------------------------------------------/14-|------------------------|
D|-----------------------------------------------------------|------------------------|
A|-----------------------------------------------------------|------------------------|
E|-----------------------------------------------------------|------------------------|

E|--------------3-5\3-|--------------3-5\3-|--------------3-5\3-|--------------3-5\3-|
B|----1-----4--3------|----1-----4--3------|----1-----4--3------|----1-----4--3------|
G|---0-0---5--4-------|---0-0---5--4-------|---0-0---5--4-------|---0-0---5--4-------|
D|--2---2-6--5--------|--2---2-6--5--------|--2---2-6--5--------|--2---2-6--5--------|
A|-3------------------|-3------------------|-3------------------|-3------------------|
E|--------------------|--------------------|--------------------|--------------------|

E|--------------3-5\3-|--------------3-5\3-|--------------3-5\3-|--------------3-5\3-|
B|----1-----4--3------|----1-----4--3------|----1-----4--3------|----1-----4--3------|
G|---0-0---5--4-------|---0-0---5--4-------|---0-0---5--4-------|---0-0---5--4-------|
D|--2---2-6--5--------|--2---2-6--5--------|--2---2-6--5--------|--2---2-6--5--------|
A|-3------------------|-3------------------|-3------------------|-3------------------|
E|--------------------|--------------------|--------------------|--------------------|

E|--------------3-5\3-|--------------3-5\3-|--------------3-5\3-|--------------3-5\3-|
B|----1-----4--3------|----1-----4--3------|----1-----4--3------|----1-----4--3------|
G|---0-0---5--4-------|---0-0---5--4-------|---0-0---5--4-------|---0-0---5--4-------|
D|--2---2-6--5--------|--2---2-6--5--------|--2---2-6--5--------|--2---2-6--5--------|
A|-3------------------|-3------------------|-3------------------|-3------------------|
E|--------------------|--------------------|--------------------|--------------------|

E|--------------3-5\3-|--------------3-5\3-|--------------3-5\3-|--------------3-5\3-|
B|----1-----4--3------|----1-----4--3------|----1-----4--3------|----1-----4--3------|
G|---0-0---5--4-------|---0-0---5--4-------|---0-0---5--4-------|---0-0---5--4-------|
D|--2---2-6--5--------|--2---2-6--5--------|--2---2-6--5--------|--2---2-6--5--------|
A|-3------------------|-3------------------|-3------------------|-3------------------|
E|--------------------|--------------------|--------------------|--------------------|

E|--------------3-5\3-|--------------3-5\3-|--------------3-5\3-|-0------------------|
B|----1-----4--3------|----1-----4--3------|----1-----4--3------|-1------------------|
G|---0-0---5--4-------|---0-0---5--4-------|---0-0---5--4-------|-0------------------|
D|--2---2-6--5--------|--2---2-6--5--------|--2---2-6--5--------|-2------------------|
A|-3------------------|-3------------------|-3------------------|-3------------------|
E|--------------------|--------------------|--------------------|--------------------|
reproducciones 194
Acordes para:
    Composição: Jimmy Page / John Paul Jones / Robert Plant Colaboración y revision:
    • Vitor Bruno

    0 comentarios

    mostrar más comentarios

    ¿Conseguiste tocar?

    0 tocaron 0 aún no

    ¡Graba un vídeo tocando I'm Gonna Crawl y envianoslo!

    00:00 / 00:00
    outros vídeos desta música
    repetir qualidade Automático
    Outros vídeos desta música
    00:00 / 00:00
    Automático
    OK