Cifra Club

In The Light

Led Zeppelin

Tab de bajo: Principal
Riff 1;
    
              "..did you ever believe..."
  G|------------------------------------------------------|
  D|------------------------------------------------------|
  A|-----------------------------------8--5--3--5---------|
  E|------------6--4--6----4--6--4--6---------------------|

  G|------------------------------------------------------|
  D|------------------------------------------------------|
  A|-----------------------------------8--5--3--5---------|
  E|------------6--4--6----4--6--4--6---------------------|
 
Riff 2;
  G|------------------------------------------------------|
  D|---------------------------2--------------------------|
  A|---------8-8--7--5---1---3---3------------------------|   
  E|-------------------------------4--2--0-----2---4-6----|                  
                      
  G|------------------------------------------------------|
  D|---------------------------2--------------------------|
  A|---------8-8--7--5---1---3---3------------------------|   
  E|-------------------------------4--2--0-----2---4-6----|
00:00 / 00:00
Otros videos de esta canción
Repetir
Otros videos de esta canción
Composición de Jimmy Page / John Paul Jones / Robert Plant
Colaboración y revisión:
  • Pedro
129 vistas

0 comentarios

Ver todos los comentarios
00:00 / 00:00
OK