Cifra Club

Kashmir

Led Zeppelin

Tablatura: Principal
reproducciones 10.450
Tono: D
Afinação: D  A  D  G  A  D
Introdução:

(Parte 1)

                   P.M                  .
D|----------------------------------------------------|
A|----------------------------------------------------|
G|-2-2-2--x--2-2-2-----3-3-3--x--3-3-3----------------|
D|-0-0-0--x--0-0-0-----0-0-0--x--0-0-0----------------|
A|-5-5-5--x--5-5-5-----5-5-5--x--5-5-5----------------|
D|------------------0-------------------0-------------|

                   P.M                  .
D|----------------------------------------------------|
A|----------------------------------------------------|
G|-4-4-4--x--4-4-4-----5-5-5--x--5-5-5----------------|
D|-0-0-0--x--0-0-0-----0-0-0--x--0-0-0----------------|
A|-5-5-5--x--5-5-5-----5-5-5--x--5-5-5----------------|
D|------------------0-------------------0-------------|

(Parte 2)

         P.M        .                   .
D|----------------------------------------------------|
A|----------------------------------------------------|
G|-7-7-7-----2-2-2-----3-3-3--x--3-3-3----------------|
D|-0-0-0-----0-0-0-----0-0-0--x--0-0-0----------------|
A|-5-5-5-----5-5-5-----5-5-5--x--5-5-5----------------|
D|--------0---------0-------------------0-------------|

                   P.M                  .
D|----------------------------------------------------|
A|----------------------------------------------------|
G|-4-4-4--x--4-4-4-----5-5-5--x--5-5-5----------------|
D|-0-0-0--x--0-0-0-----0-0-0--x--0-0-0----------------|
A|-5-5-5--x--5-5-5-----5-5-5--x--5-5-5----------------|
D|------------------0-------------------0-------------|


Primeira Estrofe:
         P.M        .                   .
D|----------------------------------------------------|
A|----------------------------------------------------|
G|-7-7-7-----2-2-2-----3-3-3--x--3-3-3----------------|
D|-0-0-0-----0-0-0-----0-0-0--x--0-0-0----------------|
A|-5-5-5-----5-5-5-----5-5-5--x--5-5-5----------------|
D|--------0---------0-------------------0-------------|

                   P.M                  .
D|----------------------------------------------------|
A|----------------------------------------------------|
G|-4-4-4--x--4-4-4-----5-5-5--x--5-5-5----------------|
D|-0-0-0--x--0-0-0-----0-0-0--x--0-0-0----------------|
A|-5-5-5--x--5-5-5-----5-5-5--x--5-5-5----------------|
D|------------------0-------------------0-------------|


Oh, let the sun beat down upon my face
Stars to fill my dream
I am a traveler of both time and space
To be where I have been
To sit with elders of the gentle race
This world has seldom seen
They talk of days for which they sit and wait
When all will be revealed
Passagem 1:

D|-12--12--10--10--7--7--5--5--3--3-------------------|
A|-0---0---0---0---0--0--0--0--0--0-------------------|
G|-12--11--10--9---7--6--5--4--3--2-------------------|  (2x)
D|-0---0---0---0---0--0--0--0--0--0--3-2-0------------|
A|----------------------------------------------------|
D|----------------------------------------------------|

         P.M                  .                   .
D|----------------------------------------------------|
A|----------------------------------------------------|
G|-3-3-3-----4-4-4--x--4-4-4-----5-5-5--x--5-5-5------|
D|-0-0-0-----0-0-0--x--0-0-0-----0-0-0--x--0-0-0------|
A|-5-5-5-----5-5-5--x--5-5-5-----5-5-5--x--5-5-5------|
D|--------0-------------------0-------------------0---|


Segunda Estrofe:
         P.M        .                   .
D|----------------------------------------------------|
A|----------------------------------------------------|
G|-7-7-7-----2-2-2-----3-3-3--x--3-3-3----------------|
D|-0-0-0-----0-0-0-----0-0-0--x--0-0-0----------------|
A|-5-5-5-----5-5-5-----5-5-5--x--5-5-5----------------|
D|--------0---------0-------------------0-------------|

                   P.M                  .
D|----------------------------------------------------|
A|----------------------------------------------------|
G|-4-4-4--x--4-4-4-----5-5-5--x--5-5-5----------------|
D|-0-0-0--x--0-0-0-----0-0-0--x--0-0-0----------------|
A|-5-5-5--x--5-5-5-----5-5-5--x--5-5-5----------------|
D|------------------0-------------------0-------------|


Talk and song from tongues of lilting grace
Whose sounds caress my ear
But not a word I heard could I relate
The story was quite clear
Oh, oh
Oh, oh
Passagem 2:

D|-12--12--10--10--7--7--5--5--3--3-------------------|
A|-0---0---0---0---0--0--0--0--0--0-------------------|
G|-12--11--10--9---7--6--5--4--3--2-------------------|  (2x)
D|-0---0---0---0---0--0--0--0--0--0--3-2-0------------|
A|----------------------------------------------------|
D|----------------------------------------------------|

         P.M                  .                   .
D|----------------------------------------------------|
A|----------------------------------------------------|
G|-3-3-3-----4-4-4--x--4-4-4-----5-5-5--x--5-5-5------|
D|-0-0-0-----0-0-0--x--0-0-0-----0-0-0--x--0-0-0------|
A|-5-5-5-----5-5-5--x--5-5-5-----5-5-5--x--5-5-5------|
D|--------0-------------------0-------------------0---|

D|-12--12--10--10--7--7--5--5--3--3-------------------|
A|-0---0---0---0---0--0--0--0--0--0-------------------|
G|-12--11--10--9---7--6--5--4--3--2-------------------|
D|-0---0---0---0---0--0--0--0--0--0--3-2-0-----0------|
A|-----------------------------------------0-2--------|
D|----------------------------------------------------|


Terceira Estrofe:
  P.M  .  .       .     .   .  .
D|----------------------------------------------------|
A|----------------------------------------------------|
G|----------------------------------------------------|  (4x)
D|-----------14\------------------14\-----------------|
A|-7---7--7--12\--7-----7---7--7--12\--7--8-7-5-----5-|
D|-7---7--7-------7-----7---7--7-------7--------7-9---|

  P.M  .  .       .      .   .  .       .
D|----------------------------------------------------|
A|----------------------------------------------------|
G|----------------------------------------------------|
D|-----------14\-------------------14\----------------|
A|-7---7--7--12\--7------7---7--7--12\--7-------------|
D|-7---7--7-------7------7---7--7-------7-------------|


Oh, I been flying
Mama, there ain't no denying
Oh yeah, I've been flying
Mama, ain't no denying, no denying
Passagem 3:

D|-12--12--10--10--7--7--5--5--3--3-------------------|
A|-0---0---0---0---0--0--0--0--0--0-------------------|
G|-12--11--10--9---7--6--5--4--3--2-------------------|  (2x)
D|-0---0---0---0---0--0--0--0--0--0--3-2-0------------|
A|----------------------------------------------------|
D|----------------------------------------------------|


Quarta Estrofe:

G5                 A5
   All I see turns    to brown
G5                  A5
   As the sun burns    the ground
G5                   A5
   And my eyes fill with sand
G5                 A5
   As I scan this wasted land
G5
   Trying to find
                           A5
Trying to find where I've been
Introdução:

(Parte 1)

                   P.M                  .
D|----------------------------------------------------|
A|----------------------------------------------------|
G|-2-2-2--x--2-2-2-----3-3-3--x--3-3-3----------------|
D|-0-0-0--x--0-0-0-----0-0-0--x--0-0-0----------------|
A|-5-5-5--x--5-5-5-----5-5-5--x--5-5-5----------------|
D|------------------0-------------------0-------------|

                   P.M                  .
D|----------------------------------------------------|
A|----------------------------------------------------|
G|-4-4-4--x--4-4-4-----5-5-5--x--5-5-5----------------|
D|-0-0-0--x--0-0-0-----0-0-0--x--0-0-0----------------|
A|-5-5-5--x--5-5-5-----5-5-5--x--5-5-5----------------|
D|------------------0-------------------0-------------|

(Parte 2)

         P.M        .                   .
D|----------------------------------------------------|
A|----------------------------------------------------|
G|-7-7-7-----2-2-2-----3-3-3--x--3-3-3----------------|
D|-0-0-0-----0-0-0-----0-0-0--x--0-0-0----------------|
A|-5-5-5-----5-5-5-----5-5-5--x--5-5-5----------------|
D|--------0---------0-------------------0-------------|

                   P.M                  .
D|----------------------------------------------------|
A|----------------------------------------------------|
G|-4-4-4--x--4-4-4-----5-5-5--x--5-5-5----------------|
D|-0-0-0--x--0-0-0-----0-0-0--x--0-0-0----------------|
A|-5-5-5--x--5-5-5-----5-5-5--x--5-5-5----------------|
D|------------------0-------------------0-------------|


Quinta Estrofe:
         P.M        .                   .
D|----------------------------------------------------|
A|----------------------------------------------------|
G|-7-7-7-----2-2-2-----3-3-3--x--3-3-3----------------|
D|-0-0-0-----0-0-0-----0-0-0--x--0-0-0----------------|
A|-5-5-5-----5-5-5-----5-5-5--x--5-5-5----------------|
D|--------0---------0-------------------0-------------|

                   P.M                  .
D|----------------------------------------------------|
A|----------------------------------------------------|
G|-4-4-4--x--4-4-4-----5-5-5--x--5-5-5----------------|
D|-0-0-0--x--0-0-0-----0-0-0--x--0-0-0----------------|
A|-5-5-5--x--5-5-5-----5-5-5--x--5-5-5----------------|
D|------------------0-------------------0-------------|


Oh, pilot of the storm who leaves no trace
Like thoughts inside a dream
Hid the path that led me to that place
Yellow desert stream
My Shangri-la beneath the summer moon
I will return again
Sure as the dust that floats high in June
When moving through Kashmir
Passagem 4:

D|-12--12--10--10--7--7--5--5--3--3-------------------|
A|-0---0---0---0---0--0--0--0--0--0-------------------|
G|-12--11--10--9---7--6--5--4--3--2-------------------|  (2x)
D|-0---0---0---0---0--0--0--0--0--0--3-2-0------------|
A|----------------------------------------------------|
D|----------------------------------------------------|

         P.M                  .                   .
D|----------------------------------------------------|
A|----------------------------------------------------|
G|-3-3-3-----4-4-4--x--4-4-4-----5-5-5--x--5-5-5------|
D|-0-0-0-----0-0-0--x--0-0-0-----0-0-0--x--0-0-0------|
A|-5-5-5-----5-5-5--x--5-5-5-----5-5-5--x--5-5-5------|
D|--------0-------------------0-------------------0---|


Quinta Estrofe:
         P.M        .                   .
D|----------------------------------------------------|
A|----------------------------------------------------|
G|-7-7-7-----2-2-2-----3-3-3--x--3-3-3----------------|
D|-0-0-0-----0-0-0-----0-0-0--x--0-0-0----------------|
A|-5-5-5-----5-5-5-----5-5-5--x--5-5-5----------------|
D|--------0---------0-------------------0-------------|

                   P.M                  .
D|----------------------------------------------------|
A|----------------------------------------------------|
G|-4-4-4--x--4-4-4-----5-5-5--x--5-5-5----------------|
D|-0-0-0--x--0-0-0-----0-0-0--x--0-0-0----------------|
A|-5-5-5--x--5-5-5-----5-5-5--x--5-5-5----------------|
D|------------------0-------------------0-------------|


Oh, father of the four winds, fill my sails
Across the sea of years
With no provision but an open face
Along the straits of fear
Oh, oh
Oh, oh
Passagem 5:

D|-12--12--10--10--7--7--5--5--3--3-------------------|
A|-0---0---0---0---0--0--0--0--0--0-------------------|
G|-12--11--10--9---7--6--5--4--3--2-------------------|  (2x)
D|-0---0---0---0---0--0--0--0--0--0--3-2-0------------|
A|----------------------------------------------------|
D|----------------------------------------------------|

         P.M                  .                   .
D|----------------------------------------------------|
A|----------------------------------------------------|
G|-3-3-3-----4-4-4--x--4-4-4-----5-5-5--x--5-5-5------|
D|-0-0-0-----0-0-0--x--0-0-0-----0-0-0--x--0-0-0------|
A|-5-5-5-----5-5-5--x--5-5-5-----5-5-5--x--5-5-5------|
D|--------0-------------------0-------------------0---|

D|-12--12--10--10--7--7--5--5--3--3-------------------|
A|-0---0---0---0---0--0--0--0--0--0-------------------|
G|-12--11--10--9---7--6--5--4--3--2-------------------|  (2x)
D|-0---0---0---0---0--0--0--0--0--0--3-2-0------------|
A|----------------------------------------------------|
D|----------------------------------------------------|


Sexta Estrofe:

G5
   When I'm on
                A5
When I'm on my way, yeah
G5
   When I see
                          A5       G5  A5
When I see the way, you stay, yeah
G5  A5  G5
           Oh yeah, yeah, oh yeah, yeah
          A5
When I'm down
G5
   Oh yeah, yeah, oh yeah, yeah
          A5
When I'm down
G5
   Oh my baby, oh my baby
                  A5
Let me take you there

( G5  A5 )
Acordes para:
    Compositor: Jimmy Page / John Bonham / Robert PlantColaboración y revision:
    • Vinícius Dias
    • Gustavo Cintra

    0 comentarios

      mostrar más comentarios

      ¿Conseguiste tocar?

      67tocaron3aún no

      ¡Graba un vídeo tocando Kashmir y envianoslo!

      00:00 / 00:00
      outros vídeos desta música
      repetirqualidadeautomática
      Outro vídeos desta música
        00:00 / 00:00
        automática
        Capítulos
        • Início
        • Afinação
        • Tocando Introdução
        • Configuração do Efeito
        • Tocando a música
        • Ensinando Introdução
        • Tocando Primeira Estrofe e Passagem 1
        • Ensinando Passagem 1
        • Tocando Segunda Estrofe e Passagem 2
        • Ensinando Passagem 2
        • Tocando Terceira Estrofe
        • Ensinando Terceira Estrofe
        • Acordes da Quarta Estrofe
        • Tocando Quarta Estrofe
        • Ensinando Ritmo da Quarta Estrofe
        • Encerramento
        OK