Enviar cifraEntrar

Rock N' Roll

Led Zeppelin

Acordes: Principal
reproducciones 9.430
Tono: A
 intro:

 riff 1

E|--------------------------|-------------|
B|--------------------------|-------------|
G|--------------------------|-------------|
D|--2--2-----2-5-4-2-5------|-4-2-2-2-4-2-|
A|--0--0-3b4---------- 3b4-0|-0-0-0-0-0-0-|
E|--------------------------|-------------|


 riff 2

E|--------------------------|-------------|
B|--------------------------|-------------|
G|--2--2-----2-5-4-2-5------|-4-2-2-2-4-2-|
D|--0--0-3b4-----------3b4-0|-0-0-0-0-0-0-|
A|--------------------------|-------------|
E|--------------------------|-------------|


 riff 3

E|--------------------------|-------------|
B|--------------------------|-------------|
G|--------------------------|-------------|
D|--------------------------|-------------|
A|--2--2-----2-5-4-2-5------|-4-2-2-2-4-2-|
E|--0--0--3b4-------------0-|-0-0-0-0-0-0-|


 riff A verso

E|-----------|     |-----------------|
B|-----------|     |-----------------|
G|-----2-----|     |-----2----2------|
D|-----2-----|     |-----2----2------|
A|-----0-----|     |-----0----0------|
E|--3--------| 3x  |---3----3---3p0--|


    riff B verso
E|-----------|     |-----------------|
B|-----3-----|     |-----3----3------|
G|-----2-----|     |-----2----2------|
D|-----0-----|     |-----0----0------|
A|--3--------|     |---3----3---3p0--|
E|-----------| 3x  |-----------------|


     verso E
E|--------------------------------------------|
B|--------------------------------------------|
G|--------------------------------------------|
D|-9-9-11-9-9-9-11-9-9-9-11-9-9-9-11-9---7----|
A|-7-7-7--7-7-7-7--7-7-7-7--7-7-7-7--7---5----|
E|--------------------------------------------|


 solo:

E|----------------------|
B|--5--5----------------|
G|--5--5----------------|
D|-------7--5-7--5--7~~-|
A|----------------------|
E|----------------------| 5x


E|-----------|      e|--------|
B|-----------|      b|--------|
G|-----------|      g|--------|
D|-----------|      d|--------|
A|----0h4p0--|      a|----4p0-|
E|--3--------| 4x   e|--3-----| 4x


E|---------------------------------------------|
B|---------------------------------------------|
G|---------------------------------------------|
D|-----5p2p0-----------------2-----------2p0-0-|
A|--0--------4p3-------2-3-4---4-3-2-3-4-------|
E|---------------3-3-3-------------------------|


E|--------------------------------0---5--------|
B|---------------------------3b5----5----------|
G|---4p2p0--5p3p0--6p4p0--0-------------7b9----|
D|---------------------------------------------|
A|---------------------------------------------|
E|---------------------------------------------|


E|--------------------------5---------5-----5--|
B|--------------------------5---------5-----5--|
G|--(7)p5--7-5-------5--7b9---7b9-7b9---7b9----|
D|-------------7-5-7---------------------------|
A|---------------------------------------------|
E|---------------------------------------------|


E|--4p3p2p0-5p4p3p0-6p5p4p0-7p6p5p0-8p7p6p0----|
B|-------------------------------------------8-|
G|---------------------------------------------|
D|---------------------------------------------|
A|---------------------------------------------|
E|---------------------------------------------|


E|--5---10b12--10b12--5---7b9--7-5----7b9--7-5-|
B|----------------------7----------7-----------|
G|---------------------------------------------|
D|---------------------------------------------|
A|---------------------------------------------|
E|---------------------------------------------|


E|--5---7b9---7-5~~--7-----5-7--5-----12-------|
B|----7----------------5h7---------10----12b14-|
D|---------------------------------------------|
G|---------------------------------------------|
A|---------------------------------------------|
E|---------------------------------------------|


E|--------12------12~-12~--12~-----------------|
B|--10~~--15b17---15~-15~--15b17~~----15-13----|
G|---------------------------------------------|
D|---------------------------------------------|
A|---------------------------------------------|
E|---------------------------------------------|


E|--------12---------- |   |---------|
B|--15b17----13--------|   |-5h8p5---|
G|--------------14///--|   |-------7-|
D|---------------------|   |---------|
A|---------------------|   |---------|
E|---------------------|   |---------| 4x


E|--8b10--5-------------|  |---------|
B|----------5----5------|  |-5h8p5---|
G|------------7-----7//-|  |-------7-|
D|----------------------|  |---------|
A|----------------------|  |---------|
E|----------------------|  |---------| 8x


E|---------------------------------------------|
B|-----------------------7~~~------------------|
G|--7---5--7--5---------------5--7--5----------|
D|--------------7--7---7--------------7--7----7|
A|---------------------------------------------|
E|---------------------------------------------|


 o final da musica e assim:

E|---------------------------------------------|
B|--5------------------------------------------|
G|--x------------------------------------------|
D|--5--------------------5h7p5--5h7---5--------|
A|--4----3h5h3-----3-5/7------------0-------5--|
E|-----5-------3h5-----------------------------|


riff 1 2x
riff 2 1x
riff 1 1x
riff 3 1x
riff 1 1x
riff A 2x
riff B 1x
riff A 1x
riff E 1x
riff 1 2x
riff A 2x
riff B 1x
riff A 1x
riff E 1x
riff 1 2x
solo
  • 1
  • 2
  • 3
  • 4
  • 5
  • 6
  • 7
  • 8
  • 9
  • 10
  • 11
  • 12
    Acordes para:
      Composición: Jimmy Page / John Bonham / John Paul Jones / Robert PlantColaboración y revision:
      • Pedro
      • Rodrigo
      • joaomagalhaesbh

      0 comentarios

        mostrar mas comentarios

        ¿Conseguiste tocar?

        32tocaron1aún no

        ¡Grave un vídeo tocando Rock N' Roll y envie para nosotros!

        00:00 / 00:00
        outros vídeos desta música
        repetirqualidadeautomática
        • automática
        Outro vídeos desta música
          00:00 / 00:00
          automática
          • automática
          Acordes para:guitarra
          dificuldadreproduccionescontribuciones
          2 versiones de Contrabajoreproduccionescontribuciones
          1 versión de Bateríareproduccionescontribuciones
          1 versión de Armónicareproduccionescontribuciones
          3 versiones de Guitar Proformatodownloadscontribución
          cerrarplay/pause subir/bajar velocidad
            acordes
            cerrar
            OK
            Feedback