Cifra Club

Stairway To Heaven

Led Zeppelin

Cifrado: Principal (guitarra y guitarra eléctrica)
Selo Cifra Club: esta cifra foi revisada para atender aos critérios oficiais da nossa Equipe de Qualidade.
tono: Am
[Intro] Am  Am7M  Am7  D/F#
        F7M  G/B  Am
        Am  Am7M  Am7  D/F#
        F7M  G/B  Am
        C  D  F7M  Am
        C  G  D4  D
        C  D  F7M  Am
        C  D  F7M

[Tab - Intro e Primeira Parte - Violão] 

   Am       Am7M     Am7      D/F#
E|-------5--7-----7--8-----8--2-----2-------|
B|-----5------5--------5--------3-----------|
G|---5----------5--------5--------2---------|
D|-7--------6--------5--------4-------------|
A|------------------------------------------|
E|------------------------------------------|

   F7M           G/B  Am
E|-0-------0--------------------------------|
B|---1---1---1----0-------------------------|
G|-----2-------2--0---2--2------------------|
D|-3--------------0---2--2------------------|
A|----------------2---0--0--0-2/8-7---------|
E|------------------------------------------|

   Am       Am7M     Am7      D/F#
E|----------7-----7--8-----8--2-----2-------|
B|-------5----5--------5--------3-----------|
G|-----5--------5--------5--------2---------|
D|---7------6--------5--------4-------------|
A|-0----------------------------------------|
E|------------------------------------------|

   F7M           G/B  Am
E|-0-------0--------------------------------|
B|---1---1---1----0-------------------------|
G|-----2-------2--0---2---2-----------------|
D|-3--------------0---2---2-----------------|
A|----------------2---0---0-----------------|
E|------------------------------------------|

[Tab Intro e Segunda Parte - Violão]

   C           D         F7M       Am
E|-----------0-2------2--0------0-----------|
B|---------------3---------1-------0h1------|
G|---------0--------2---------2---------2---|
D|-------2-----0---------3------------------|
A|-0-2-3---------------------------0--------|
E|------------------------------------------|

   C            G        D4  D
E|--------------3-----3--3p2-2-2------------|
B|-----1-----1----0------3---3-3------------|
G|-------0----------0----2---2-2------------|
D|---------2-------------0-----0------------|
A|-0-2-3------------------------------------|
E|--------------3---------------------------|

   C            D        F7M      Am
E|--------------2-----2--0-----0------------|
B|-----------1----3--------1------0h1-------|
G|---------0--------2--------2--------2-----|
D|-------2------0--------3------------------|
A|-0-2-3--------------------------0---------|
E|------------------------------------------|

    C            D       F7M
E|--------------------2--0-0-0--------------|
B|-----------1------3----1-1-1--------------|
G|---------0------2------2-2-2--------------|
D|-------2------0--------3-3-3--------------|
A|-0-2-3------------------------------------|
E|------------------------------------------|

[Primeira Parte]

           Am         Am7M
There's a lady who's sure
           Am7        D/F#
All that glitters is gold
           F7M                   
And she's buying the 
             G/B  Am
Stairway to hea__ven

          Am               Am7M
When she gets there, she knows
         Am7            D/F#
If the stores are all closed
        F7M                       
With a word she can get 
          G/B  Am
What she came for

[Segunda Parte]

C   D  F7M  Am
  Uuuh
           C         
And she's buying a 
  G          D4  D
Stairway to hea_ven
           C           D
There's a sign on the wall
         F7M         Am
But she wants to be sure
             C             
'Cause you know sometimes 
 D              F7M
Words have two meanings

[Primeira Parte]

       Am          Am7M
In a tree by the brook
           Am7          D/F#
There's a songbird who sings
          F7M                        
Sometimes all of our thoughts 
        G/B  Am
Are misgi___ven

( Am  Am7M  Am7  D/F# )
( F7M  G/B  Am  G/B )

[Tab - Interlúdio 1 - Violão]

                Am       Am7M
E|--------------------5--7-------7----------|
B|-------------------------5---5---5--------|
G|------------------5--------5-------5------|
D|----------------7------6-------------6----|
A|-0--2/8--7----0---------------------------|
E|------------------------------------------|

   Am7            D/F#
E|-------8--------------2-------------------|
B|-----5---5----------3---3-----------------|
G|---5-------5------2-------2---------------|
D|-5-----------5--4-----------4-------------|
A|------------------------------------------|
E|------------------------------------------|

   F7M                         G/B Am   G/B
E|-------0-------------0--------------------|
B|-----1---1---------1---1-----0---1--1--3--|
G|---2-------2-----2-------2---0---2--2--0--|
D|-3-------------3-----------3-0---2--2--0--|
A|-----------------------------2---0--0--2--|
E|------------------------------------------|

[Terceira Parte]

Am7  D4  D                  Am7   
           Oh, it makes me wonder

( Em  D  C  D )

Am7  D4  D
Oh         it makes me wonder

( Am7  Em  D  C  D )

[Quarta Parte]

[Dedilhado - Quarta Parte - Violão]

   C         G/B      Am
E|------------------------------------------|
B|---------1-------3--0h1---------1---------|
G|-------0-------0--------2-----2-----------|
D|-----2-------0--------------2-------------|
A|-0-3-------2--------0-----0---------------|
E|------------------------------------------|

   C                  F7M  Am
E|--------------------0----0----------------|
B|-----------1--------1----1----------------|
G|---------0-------0--2----2----------------|
D|-------2-------0----2----2----------------|
A|-0-2-3-------2------x----0----------------|
E|--------------------1---------------------|

   C           G/B      Am
E|------------------------------------------|
B|-----------1-------3--0h1---------1-------|
G|---------0-------0--------2-----2---------|
D|-------2-------0--------------2-----------|
A|-0-2-3-------2--------0-----0-------------|
E|------------------------------------------|

   C                  F7M  Am
E|--------------------0----0----------------|
B|-----------1--------1----1----------------|
G|---------0-------0--2----2----------------|
D|-------2-------0----2----2----------------|
A|-0-2-3-------2------x----0----------------|
E|--------------------1---------------------|

   C           G/B
E|------------------------------------------|
B|-----------1-------0----------------------|
G|---------0-------0------------------------|
D|-------2-------0--------------------------|
A|-0-2-3-------2----------------------------|
E|------------------------------------------|

[Tab - Quarta Parte - Guitarra 1]

   C       G/B       Am
E|------------------------------------------|
B|-------1-------3-0h1---------1------------|
G|-----0-------0-------2-----2--------------|
D|---2-------0-------------2----------------|
A|-3-------2-------------0-------0-2--------|
E|------------------------------------------|

   C       G/B    F7M  Am
E|---------------------0--------------------|
B|-------1--------1----1--------------------|
G|-----0-------0--2----2--------------------|
D|---2-------0----2----2--------------------|
A|-3-------2------x----0----------0-2-------|
E|----------------1-------------------------|

   C       G/B       Am
E|------------------------------------------|
B|-------1-------3-0h1---------1------------|
G|-----0-------0-------2-----2--------------|
D|---2-------0-------------2----------------|
A|-3-------2-------------0-------0-2--------|
E|------------------------------------------|

   C       G/B    F7M  Am
E|---------------------0--------------------|
B|-------1--------1----1--------------------|
G|-----0-------0--2----2--------------------|
D|---2-------0----2----2--------------------|
A|-3-------2------x----0--------------------|
E|----------------1-------------------------|

       C       G/B
E|-------0-3-------3------------------------|
B|---0-1-----1-0-3---0----------------------|
G|-2-------------------2--------------------|
D|------------------------------------------|
A|------------------------------------------|
E|------------------------------------------|

           C         G/B
There's a feeling I get
        Am
When I look to the west
         C        
And my spirit is 
  G/B       F7M  Am
Crying for lea__ving

        C              G/B
In my thoughts I have seen
           Am
Rings of smoke through the trees
         C          G/B            
And the voices of those 
           F7M  Am  C  G/B
Who stand loo__king

[Terceira Parte]

Am7  D4  D                  Am7   
           Oh, it makes me wonder

( Em  D  C  D )

Am7  D4  D
Oh         really it makes me wonder

( Am7  Em  D  C  D )

[Quarta Parte]

           C             G/B
And it's whispered that soon
      Am
If we all call the tune
          C          
Then the piper will 
 G/B        F7M  Am
Lead us to rea__son

       C            G/B
And a new day will dawn
      Am
For those who stand long
         C           
And the forests will 
G/B        F7M  Am  C  G/B
Echo with laughter

[Terceira Parte]

( Am7  D4  D )
( Am7  Em  D  C  D )
( Am7  D4  D )
( Am7  Em  D  C  D )

[Quarta Parte]

C               G/B            
  If there's a bustle 
         Am
In your hedgerow

Don't be alarmed now
C                G/B                
  It's just a spring 
               F7M  Am
Clean for the May queen

C                 G/B              
  Yes there are two paths 
         Am
You can go by

But in the long run
C                G/B                
  There's still time 
               F7M        Am
Yo change the road you're on

( C  G/B )

[Terceira Parte]

Am7  D4  D                  Am7   
           And it makes me wonder

( Em  D  C  D )
( Am7  D4  D  Am7 )
( Em  D  C  D )

[Quarta Parte]

C               G/B            Am
  Your head is humming and it won't go

In case you don't know
C              G/B            F7M  Am
  The piper's calling you to join him
C             G/B              Am
  Dear lady, can you hear the wind blow?

And did you know
C                G/B         
  Your stairway lies 
         F7M  Am        C  G/B  D  
On the whispering wind?

( D2  D  D4  D2  D  D4 )
( D2  D  D4  D  C9(11+) )
( D2  D  D4  D2  D  D4 )
( D2  D  D4  D )
( C9(11+)  G/B )

[Tab - Interlúdio 2 - Guitarra 1]

   D2 D  D4   D2 D  D4   D2 D  D4    D   
E|-0--2--3----0--2--3----0--2--3--3--2------|
B|-3--3--3----3--3--2----3--3--3--2--3------|
G|-2--2--2----2--2--3----2--2--2--2--2------|
D|-0--0--0----0--0--0----0--0--0--0--0------|
A|------------------------------------------|
E|------------------------------------------|

   C9(11+)
E|-0----2--2-0--------2--2-0----------------|
B|-3----3------3------3------3--------------|
G|-0--0----------0--0----------0------------|
D|-x--x----------x--x-----------------------|
A|-3--3----------3--3-----------------------|
E|------------------------------------------|

   D2 D  D4   D2 D  D4   D2 D  D4    D  
E|-0--2--3----0--2--3----0--2--3--3--2------|
B|-3--3--3----3--3--2----3--3--3--2--3------|
G|-2--2--2----2--2--3----2--2--2--2--2------|
D|-0--0--0----0--0--0----0--0--0--0--0------|
A|------------------------------------------|
E|------------------------------------------|

   C9(11+)            G/B
E|-0----2--2-2-0-----------2--2-2-0---------|
B|-3----3--------3----3----3--------3-------|
G|-0--0------------0--0--0------------0-----|
D|-x--x---------------0--0------------------|
A|-3--3---------------2--2------------------|
E|------------------------------------------|

[Solo] Am  G  F7M  Am  G  F7M
       Am  G  F7M  Am  G  F7M
       Am  G  F7M  Am  G  F7M
       Am  G  F7M  Am  G  F7M
       Am  G  F7M  Am  G  F7M

[Tab - Solo - Guitarra 1]

Parte 1 de 11
E|--------5---------------------------------|
B|----------8-5-----------------------------|
G|-7b9~---------7p5---7p5-------------------|
D|------------------7-----7p5---------------|
A|----------------------------8~------------|
E|------------------------------------------|

Parte 2 de 11
E|------8--8--8b10--8--5---------8~--10p8---|
B|-8b10------------------10-/10~------------|
G|------------------------------------------|
D|------------------------------------------|
A|------------------------------------------|
E|------------------------------------------|

E|------------------------------------------|
B|-10p8---8h10~-----------------------------|
G|------9-----------------------------------|
D|------------------------------------------|
A|------------------------------------------|
E|------------------------------------------|

Parte 3 de 11
E|-----5------------------------------------|
B|-------8-5--------------------------------|
G|-7b9-------7p5---7p5-----------5---5-5~-0-|
D|---------------7-----7p5---5-7---7--------|
A|-------------------------7----------------|
E|------------------------------------------|

Parte 4 de 11
E|-5----------------------------------------|
B|---8-5------------------------------------|
G|-------7p5---7p5--------------------------|
D|-----------7-----7-5-7p5-3----------------|
A|------------------------------------------|
E|------------------------------------------|

Parte 5 de 11
E|------------------------------------------|
B|-------6---------------------------13-----|
G|-----5---7p5---5-------12----12h14--------|
D|-/7----------7---7/14-----14--------------|
A|------------------------------------------|
E|------------------------------------------|

E|------------------------------------------|
B|-15b17-b17r15-13-15-13--------------------|
G|-----------------------14-----------------|
D|------------------------------------------|
A|------------------------------------------|
E|------------------------------------------|

E|-15b17~-b17r15-12-------------------------|
B|------------------15b17-15-13----13-------|
G|------------------------------14----------|
D|------------------------------------------|
A|------------------------------------------|
E|------------------------------------------|

Parte 6 de 11
E|------------------------------------------|
B|-15b17r15p13----13-15b17r15p13----13------|
G|-------------14----------------14---------|
D|------------------------------------------|
A|------------------------------------------|
E|------------------------------------------|

E|------------------------------------------|
B|-15b17r15p13----13-15b17r15p13----13------|
G|-------------14----------------14---------|
D|------------------------------------------|
A|------------------------------------------|
E|------------------------------------------|

E|------------------------------------------|
B|-15b17r15p13----13-15b17r15p13----13------|
G|-------------14----------------14---------|
D|------------------------------------------|
A|------------------------------------------|
E|------------------------------------------|

E|------------------------------------------|
B|-15b17r15p13----13-15b17r15p13----13------|
G|-------------14----------------14---------|
D|------------------------------------------|
A|------------------------------------------|
E|------------------------------------------|

E|-------------------------------------15b17|
B|-15b17r15p13----13-15b17r15p13----13------|
G|-------------14----------------14---------|
D|------------------------------------------|
A|------------------------------------------|
E|------------------------------------------|

Parte 7 de 11
E|-----15-----------------------------------|
B|-/17----17-15-13----13-15p13----13-15b17--|
G|-----------------14----------14-----------|
D|------------------------------------------|
A|------------------------------------------|
E|------------------------------------------|

E|-15---------------------------------------|
B|----b17r15p13-----------------------------|
G|--------------14~-------------------------|
D|------------------------------------------|
A|------------------------------------------|
E|------------------------------------------|

Parte 8 de 11
E|------15--17--15~-------------------------|
B|-/17--------------17\15p13----15p13----13-|
G|---------------------------14-------14----|
D|------------------------------------------|
A|------------------------------------------|
E|------------------------------------------|

E|------------------------------------------|
B|-15b17~-----------------------------------|
G|------------------------------------------|
D|------------------------------------------|
A|------------------------------------------|
E|------------------------------------------|

Parte 9 de 11
E|------------------------------------------|
B|-11b13---11b13-10------10-----------------|
G|-------------------12-----12b14~----------|
D|------------------------------------------|
A|------------------------------------------|
E|------------------------------------------|

Parte 10 de 11
E|------------------------------------------|
B|------------------------------------------|
G|-10b14--10-9p7\5h7p5-7h9p7p5--------------|
D|-----------------------------7~-----------|
A|------------------------------------------|
E|------------------------------------------|

Parte 11 de 11
E|----20p17----20p17----20p17----20p17------|
B|-17-------17-------17-------17-------17---|
G|------------------------------------------|
D|------------------------------------------|
A|------------------------------------------|
E|------------------------------------------|

E|-20p17----20b22~--------------------------|
B|-------17---------------------------------|
G|------------------------------------------|
D|------------------------------------------|
A|------------------------------------------|
E|------------------------------------------|
       
[Tab - Base Solo - Guitarra 2]

   A5   G5   F5                G5
E|------------------------------------------|
B|------------------------------------------|
G|------------------------------------------| (3x)
D|-7-7--5-5--3---3---3---3---3-5------------|
A|-7-7--5-5--3---3---3---3---3-5------------|
E|-5-5--3-3--1-0-1-0-1-0-1-0-1-3------------|

[Tab - Solo - Guitarra 3]

E|-8\7--8\5~~-------------------------------|
B|------------------------------------------|
G|------------------------------------------|
D|------------------------------------------|
A|------------------------------------------|
E|------------------------------------------|

[Quinta Parte]

Am            G                F   G
   And as we wind on down the road
Am              G               F   G
   Our shadows taller than our soul
Am                G            F  G
   There walks a lady we all know

[Tab - Quinta Parte - Guitarra 2]

   A5   G5   F5                  A5
E|------------------------------------------|
B|------------------------------------------|
G|------------------------------------------|
D|-7-7--5-5--3------------------------------|
A|-7-7--5-5--3-------3--5/7--5-3------------|
E|-5-5--3-3--1--3/5--------------5----------|

   A5 G5   F5
E|------------------------------------------|
B|------------------------------------------|
G|------------------------------------------| (3x)
D|-7--5-5--3--------------------------------|
A|-7--5-5--3-------3--5/7--5-3--------------|
E|-5--3-3--1--3/5--------------5------------|

Am                   G                   F  G
   Who shines white light and wants to show
Am            G                   F   G
   How everything still turns to gold
Am             G           F   G
   And if you listen very hard
Am                G              F   G
   The tune will come to you at last

Am              G              F         
   When all are one and one is all, yeah
Am          G               F
   To be a rock and not to roll

[Final]

[Tab - Solo Final]

E|------------------------------------------|
B|--------------8h10~-----------------------|
G|------5--7/9------------------------------|
D|-5/7--------------------------------------|
A|------------------------------------------|
E|------------------------------------------|

E|------------------------------------------|
B|-3----5------8------10-----13-------------|
G|-5b7--7b9~---10b12--12b14--15b17~---------|
D|------------------------------------------|
A|------------------------------------------|
E|------------------------------------------|

E|------------------------------------------|
B|-12-----13----13--------------------------|
G|-14b16--15b17-15b17~----------------------|
D|------------------------------------------|
A|------------------------------------------|
E|------------------------------------------|

E|------------------------------------------|
B|-12-----13----13--------------------------|
G|-14b16--15b17-15b17~----------------------|
D|------------------------------------------|
A|------------------------------------------|
E|------------------------------------------|

E|------------------------------------------|
B|-12-----13--------------------------------|
G|-14b16--15b17~----------------------------|
D|------------------------------------------|
A|------------------------------------------|
E|------------------------------------------|

E|------------------------------------------|
B|-15-----13-----12-----15-----13-----------|
G|-17b19--15b17--14b16--17b19--15b17~-------|
D|------------------------------------------|
A|------------------------------------------|
E|------------------------------------------|

( Am  G  F )
( Am  G  F )
( Am  G  F )
( Am  G  F )

And she's buying a stairway to heaven
Otros videos de esta canción
    4.497.162 exhibiciones
    • Simplificar cifrado
      • ½ Tono
      • Am
      • Bbm
      • Bm
      • Cm
      • C#m
      • Dm
      • Ebm
      • Em
      • Fm
      • F#m
      • Gm
      • G#m
    • Agregar a la lista

    Afinación de cifrado

    Afinador online

      Capítulos
      • Tocando o solo
      • Dicas iniciais
      • Solo (80 bpm)
      • Solo (60 bpm)
      • Encerramento
      OK