Cifra Club

Stairway To Heaven

Led Zeppelin

Tab de bajo: Indefinida
reproducciones 30
Stairway to Heaven intro arranged for bass.
Standard tuning
Listen to song for timing.

G|----------14-16--------16|-17--------17-11-------11|
D|-------14--------14------|-----14----------12------|
A|----15--------------15---|--------15-----9----12---|
E|-17----------16----------|-15----------------------|

G|-9----------9------|-4-5-5--------|
D|---10----10---10---|-5-7-7--------|
A|-8----12---------12|-------0--/8-7|
E|-------------------|--------------|

G|----------14-16--------16|-17--------17-11-------11|
D|-------14--------14------|-----14----------12------|
A|----15--------------15---|--------15-----9----12---|
E|-17----------16----------|-15----------------------|

G|-9----------9------|-4-5-5----|
D|---10----10---10---|-5-7-7----|
A|-8----12---------12|----------|
E|-------------------|-------5-7|

G|--------9-11-------11|-9-------9-4h5------|
D|-------------12------|---10----------7----|
A|---7-10---------12---|-8----12------------|
E|-8--------10---------|-----------5-----5-7|

G|-------------8------8|-----------11-------11|
D|-10-------10---9-----|--------10----12------|
A|----10-----------10--|---7-10----------12---|
E|-8-----12------------|-8---------10---------|

G|-9-------9-4-5------|--------------------11|-4-55|
D|---10----------7----|--------10-------12---|-5-77|
A|-8----12------------|---7-10-------12------|-----|
E|-----------5-----5-7|-8---------10---------|-----|
End of Intro

G|-----------14-16------16----|-------17------------11--------|
D|----------------14--14--14--|-----14--14--------12--12------|
A|-0-0----15--------15------15|---15------15----12------12--12|
E|-----17-------16------------|-15----------1514----------14--|

G|-------9------------9------|-4-5-5--------------|
D|-----10--10-------10-10----|-5-7-7--------------|
A|---12------12---12-----12--|--------------------|
E|-13-----------13---------13|--------------------|
Colaboración y revision:
  • Kelven Kennedy

0 comentarios

    mostrar más comentarios

    ¿Conseguiste tocar?

    0tocaron0aún no

    ¡Graba un vídeo tocando Stairway To Heaven y envianoslo!

    00:00 / 00:00
    outros vídeos desta música
    repetirqualidadeautomática
    Outro vídeos desta música
      00:00 / 00:00
      automática
      OK