Cifra Club

Tangerine

Led Zeppelin

Tablatura: Principal (guitarra)
Tom: G
       Am  A4  Am  A5(9) G       G   D     D
E|-0---0---0---0-----3-------3---2-----2-------2-------2---2---2-2-----|
B|-1---3---1---0-----0-------0---3-----3-------3---3---3---3---3-3-----|
G|-2---2---2---2-----0-------0---2-----2-------2-------2---2---2-2-----|
D|-2---2---2---2-----0-------0---0-----0-------0-------0---0---0-0-----|
A|-0---0---0---0-----2-------2---0-------------------------------------|
E|-------------------3-------3-----------------------------------------|

       Am  A4  Am  A5(9)  G       G   D     D           C   C
E|-0---0---0---0------3-------3---2-----2-------2---0---0-------0---0---|
B|-1---3---1---0------0-------0---3-----3-------3---1---1-------1---1---|
G|-2---2---2---2------0-------0---2-----2-------2---0---0-------0---0---|
D|-2---2---2---2------0-------0---0-----0-------0-------2-------2-------|
A|-0---0---0---0------2-------2---0---------------------3-------3-------|
E|--------------------3-------3-----------------------------------------|

          (Riff 1)             Am    Am  Am    G G     D D       D
E|-------------------|-----0-----0---0-----3-3-----2-2-------2--2--2-|
B|-------------------|-----1-----1---1-----0-0-----3-3-------3--3--3-|
G|-----0-------0-----|-----2-----2---2-----0-0-----2-2-------2--2--2-|
D|---2-------0-------|-----2-----2---2-----0-0-----0-0-------0--0--0-|
A|-3-----3-2-----2-0-|-----0-----0---0-----2-2---------------0--0--0-|
E|-------------------|---------------------3-3-----------------------|

       D4  D       D5(9)  D
E|-3---2-------0------2---------------|
B|-3---3-------3------3---------------|
G|-2---2-------2------2---------------|
D|-0---0-------0------0---------------|
A|------------------------------------|
E|------------------------------------|

Verso 1:

Am    A4    Am   A5(9) G     G D  D    D D D
Mea - sur - ing  a    sum - mers day
Am   A4  Am   A5(9) G   G  D    D   C   C    C
On - ly  find it    slips  aw - ay, to  grey
[Riff 1]     Am  Am  Am     G    G     D  D    D D4 D D5(9) D
                 The hours, they bring me pain

Refrão:

C D G  G       D  C
       Tangerine, tangerine
  D G  G               D  C
       Living reflection from a dream
  D G  G            D   C
       I was her love, she was my queen
  D G  G         G              G       D
       And now a thousand years between

Verso 2:

Am    A4    Am   A5(9) G     G D  D    D D D
Think-ing   how  it    use - d to be
Am   A4  Am    A5(9)   G    G D     D   C   C    C
Does she still re  -  mem - ber  times like these
[Riff 1]  Am   Am  Am     G   G     D D4 D D5(9) D
               To  think  of  us    a - gain

And I do..

Base do solo: Am  C  D  F7M/E  E  F7M/E  E  E  E  F7M/E  C  G  D

Solo:

E|-------------10-12-10---------------------------------10--------|
B|-10----13---------------13-12-13--13(B)--12--12-12-13-----------|
G|----------------------------------------------------------------|
D|----------------------------------------------------------------|
A|----------------------------------------------------------------|
E|----------------------------------------------------------------|

E|---------------------10------------------------------------------|
B|--12-10-12--12-12-13---------------------------------------------|
G|-----------------------------------------------------------------|
D|-----------------------------------------------------------------|
A|-----------------------------------------------------------------|
E|-----------------------------------------------------------------|

E|-15(B)--15--19-19-19-17---17-19-20-20(B)-|
B|-----------------------------------------|
G|-----------------------------------------|
D|-----------------------------------------|
A|-----------------------------------------|
E|-----------------------------------------|
reproducciones 3.199
Acordes para:

    0 comentarios

    mostrar más comentarios

    ¿Conseguiste tocar?

    46 tocaron 2 aún no

    ¡Graba un vídeo tocando Tangerine y envianoslo!

    00:00 / 00:00
    outros vídeos desta música
    repetir qualidade Automático
    Outros vídeos desta música
    00:00 / 00:00
    Automático
    OK