Cifra Club

Thank You

Led Zeppelin

Tablatura: Principal
reproducciones 1.706
Tono: E
Intro: D  Dsus  D  Dadd9  D  Dadd9  D
      (D/C  D  Dsus  D  Dadd9  D  Dadd9  D)
      (D/G  D  Dsus  D  Dadd9  D  Dadd9  D)
      (D)

D             C              G
If the sun refused to shine,
                  D
I would still be lovin' you.
              C                   G
When mountains crumble to the sea,
                      D
There would still be you and me.

Bm                     E
Kind woman, I give you my heart,
Bm             E     A
Kind woman, nothing more.

C                   G
Little drops of rain whisper of the pain,
 D
Tears of loves lost in the days gone by.
C                 G
My love is strong, with you there is no wrong,
 D
Together we shall go until we die.
My, my, my,

Bm                      E
Inspiration's what you are to me,
Bm             E   A
Inspiration, look see.

Solo: D  C  G  D

D            C                    G
And so today, my world it smiles,
                       D
Your hand in mine, we walk the miles,
D            C                 G
Thanks to you it will be done,
                       D
For you to me are the only one.

Bm              E
Happiness, no more be sad,
Bm           E    A
Happiness - I'm glad.

(Solo)
                                                    ~~~~~~~~
|--------7--------------------------|-----7------------------------7---|
|-7-8-10---10-8-7---7-----------7-8-|-(8)---10-10-8-8---(8)-7-8-10-----|
|-----------------9---9-7-6-7-9-----|----------------------------------|
|-----------------------------------|----------------------------------|
|-----------------------------------|----------------------------------|
|-----------------------------------|----------------------------------|
|
|------2----2-2---0-2-----0-0---2---|-----2-----2-2---0--2----0--0---2-|
|-3----3----3-3-----3-------3---3---|--3--3-----3-3------3-------3---3-|
|-2----2----2-------2-------2---2---|--2--2-----2--------2-------2---2-|
|-0----0----------------------------|--0--0----------------------------|
|-----------------------------------|----------------------------------|
|-----------------------------------|----------------------------------|

                                                                 ~~~~~~~~~~
|----------------7----------------7----------------|--------------------------------------------|
|---------7-8-10-----------7-8-10-----10---8-7---8-|---8-8-8-7-7-7-----(7)----------------------|
|---6-7-9------------6-7-9-------------------------|-------------------------(7)-6-(6)---7------|
|--------------------------------------------------|--------------------------------------------|
|--------------------------------------------------|--------------------------------------------|
|--------------------------------------------------|--------------------------------------------|
|
|-------3---0----3-2-----0---2-----------2-0---2---|-------------2---2--2--2--2--3-(3)-3-3-3----|
|-------3---3----3-3-3---3---3------3------3---3---|-3-----------3-3----3--3--3--3-(3)-3-3-3----|
|-------0------------0-------0------0------0---0---|-2-------------2----2--2--2--2-(2)---2------|
|--------------------------------------------------|-0------------------------0----------0------|
|-0-2----------------------------------------------|--------------------------------------------|
|--------------------------------------------------|--------------------------------------------|


                                        ~
|-----------------------------|-----------------------------|
|-----------------------------|-----------------------------|
|-7---7-6-7-6---6-------------|-----------------------------|
|-------------9---7-9-5-7-4-5-|-4---4-----------------4-5-7-|
|-----------------------------|---7---7-5-------4-5-7-------|
|-----------------------------|-----------------------------|
|
|---2-2-2---0-2-----0-0---2---|-----2---2-2-0-2-----0-0---2-|
|-3-3-3-3-----3-------3---3---|-3---3---3-3---3-------3---3-|
|-2-2-2-------2-------2---2---|-2---2---2-----2-------2---2-|
|-0-0-------------------------|-0---0-----------------------|
|-----------------------------|-----------------------------|
|-----------------------------|-----------------------------|


                                         ~~~~~~        ~         ~
|-------------------7--------------|------------------------------------||
|---------------7-8---10-8-7---7-9-|-8-7-7-(7)-----8-7-7----8--7-7------||
|---------6-7-9--------------9-----|------------------------------------||
|-----7-9--------------------------|------------------------------------||
|----------------------------------|------------------------------------||
|----------------------------------|------------------------------------||
|
|-----3-0-3-2---0-2------2-0---2---|--------2----2-2-2-2-3-(3)-3-3-3----||
|-----3-3-3-3-3-3-3----3---3---3---|-3------3--3---3-3-3-3-(3)-3-3-3----||
|-----0-------0---0----0---0---0---|-2---------2---2-2-2-2-(2)---2------||
|----------------------------------|-0-----------------0---------0------||
|-0-2------------------------------|------------------------------------||
|----------------------------------|------------------------------------|

D             C              G
If the sun refused to shine,
                  D
I would still be lovin' you.
              C                   G
When mountains crumble to the sea,
                      D
There would still be you and me.

Final: D
Acordes para:
    Compositor: Jimmy Page / Robert PlantColaboración y revision:

    0 comentarios

      mostrar más comentarios

      ¿Conseguiste tocar?

      17tocaron0aún no

      ¡Graba un vídeo tocando Thank You y envianoslo!

      00:00 / 00:00
      outros vídeos desta música
      repetirqualidadeautomática
      Outro vídeos desta música
        00:00 / 00:00
        automática
        OK