Cifra Club

The Animails

Led Zeppelin

Cifrado: Principal (guitarra y guitarra eléctrica)
tono: G
                 Am
|-------------------0--0--------------------------|
|---------------1---------1-----------------------|
|----------2-------------------2------------------|
|-------------------------------------------------|
|-0-----------------------------------------------|
|-------------------------------------------------|

                C
|-------------------------0--0--------------------|
|-------------------1------------1----------------|
|-----------0-------------------------0-----------|
|-------------------------------------------------|
|-----3-------------------------------------------|
|-------------------------------------------------|

                D
|------------------------2---2--------------------|
|------------------3-------------3----------------|
|-------------2-----------------------2-----------|
|------0------------------------------------------|
|-------------------------------------------------|
|-------------------------------------------------|

                E
|-----------------------0---0---------------------|
|--------------------0----------0-----------------|
|----------------1-----------------1--------------|
|-------------------------------------------------|
|-------------------------------------------------|
|---0---------------------------------------------|

Obs:É só dedilhado
00:00 / 00:00
Otros videos de esta canción
Repetir
Otros videos de esta canción
Composición de Led Zeppelin
Colaboración y revisión:
  • noca
76 vistas
    • ½ Tono
    • A
    • Bb
    • B
    • C
    • Db
    • D
    • Eb
    • E
    • F
    • F#
    • G
    • Ab
  • Agregar a la lista

    0 comentarios

    Ver todos los comentarios
    00:00 / 00:00
    OK