Cifra Club

The Ocean

Led Zeppelin

Tablatura: Principal (guitarra)
Tom: G
E|--------------------------------------------------|
B|--------------------------------------------------|
G|--------------------------------------------------|
D|--5h7-7-5-----------------5--------7------7-------| 
A|-----------7---------5--7-----5--7------4---5---7-|
E|--------------8/3---------------------------------|

    D D D D   C C C C   A G A   C D D D D D             ESCUTE BEM A MUSICA PRA PEGAR O TEMPO!!!!
E|--------------------------------------------------|
B|--------------------------------------------------|
G|----------------------------------------------/14-|
D|-7-7-7-7---5-5-5-5-----------5/7-7-7-7-7------/14-|
A|-5-5-5-5---3-3-3-3---7-5-7---3/5-5-5-5-5----------|
E|---------------------5-3-5------------------------|

E|---------------------------------------------8----------/-----------------------|
B|-5---5-------------------------------------8---10-10-------/\--15b17r15p13------|
G|-7b9-7b9--7b9r7p5--------------5-------7h9---------------------------------14---|
D|-------------------5h7-7-----5---7-7--------------------------------------------|
A|-------------------------5h7----------------------------------------------------|
E|--------------------------------------------------------------------------------|

E|-------5-------------------------------------------------------------8----------|
B|-----5---5-8-8-8--5------------------------------------------------8---10-10----|
G|-7b9----------------7b9r7p5-7-5-------------5-----5-----5------7h9--------------|
D|--------------------------------5h7-7-----5---7-7---7-----7-7-------------------|
A|--------------------------------------5h7---------------------------------------|
E|--------------------------------------------------------------------------------|

E|-------15-15-------15-15-------15-15-------15-------15--------------------------|
B|-15b17-------15b17-------15b17-------15b17----15b17-----------------------------|
G|--------------------------------------------------------------------------------|
D|--------------------------------------------------------------------------------|
A|--------------------------------------------------------------------------------|
E|--------------------------------------------------------------------------------|

Solo: D  E  D  E  D  E
      A  D  E  A  D  E

E|----10-12b14--12---------------------------------------------------10-12b14-12-10--------------------10-11-12|
B|----10-----------12b14-12-10--12b14-12-10--12--10-10-9-------------10-------------12b14-12-10--10-12b14------|
G|--x-------------------------11-----------11--11-----------9h11p9--x--------------------------11--------------|
D|-x-----------------------------------------------------11--------x-------------------------------------------|
A|-------------------------------------------------------------------------------------------------------------|
E|-------------------------------------------------------------------------------------------------------------|

E|-------------------------------------------------------------------------------------------------------------|
B|-12b14-12-10--12--10-12p10-----------------------------------------------------------------------------------|
G|------------11--11---------11b13-11-9--11--9--11b13--11--9--/6-4------------/6-4-----------------------------|
D|-------------------------------------11--11------------11-------7-6-4-2---------7-6-4-2----------------------|
A|------------------------------------------------------------------------4-2------------4-2-------------------|
E|-------------------------------------------------------------------------------------------------------------|
reproducciones 1.448
Acordes para:
    Composição: Jimmy Page / John Bonham / John Paul Jones / Robert Plant Colaboración y revision:
    • diogo ristow
    • Níkolas Zonta
    • Michael Franklin

    0 comentarios

    mostrar más comentarios

    ¿Conseguiste tocar?

    9 tocaron 1 aún no

    ¡Graba un vídeo tocando The Ocean y envianoslo!

    00:00 / 00:00
    outros vídeos desta música
    repetir qualidade Automático
    Outros vídeos desta música
    00:00 / 00:00
    Automático
    OK