Cifra Club

Traveling Riverside Blues

Led Zeppelin

Tablatura: Principal (guitarra)
Tom: G
Afinação Open G


Intro Parte 1:

D|-------------/12---12-12------/12--12-12|----/12-12-12-12-12-----0---0---0--5----3--0-|
B|-------------/12---12-12------/12--12-12|----/12-12-12-12-12-----0---0---0--5----3--0-|
G|-------------/12---12-12------/12--12-12|----/12-12-12-12-12-----0---0---0--5----3--0-|
D|----------------------------------------|---------------------------------------------|
G|----------------------------------------|---------------------------------------------|
D|----------------------------------------|---------------------------------------------|

D|------0-------0-------0-------0---------|----/12-12-12-12-12-----0---0---0--5----3--0-|
B|----0-------0-------0-------0-----------|----/12-12-12-12-12-----0---0---0--5----3--0-|
G|----------------------------------------|----/12-12-12-12-12-----0---0---0--5----3--0-|
D|-3------2-------0-----------------------|---------------------------------------------|
G|------------------------3--------1--2---|---------------------------------------------|
D|---------------------------------------3|---------------------------------------------|

D|------0-------0-------0-------0---------|----/12-12-12-12-12-----0---0---0--5----3--0-|
B|----0-------0-------0-------0-----------|----/12-12-12-12-12-----0---0---0--5----3--0-|
G|----------------------------------------|----/12-12-12-12-12-----0---0---0--5----3--0-|
D|-3------2-------0-----------------------|---------------------------------------------|
G|------------------------3--------1--2---|---------------------------------------------|
D|---------------------------------------3|---------------------------------------------|

D|------0-------0-------0-------0---------|----/12-12-12-12-12-----0---0---0--5----3--0-|
B|----0-------0-------0-------0-----------|----/12-12-12-12-12-----0---0---0--5----3--0-|
G|----------------------------------------|----/12-12-12-12-12-----0---0---0--5----3--0-|
D|-3------2-------0-----------------------|---------------------------------------------|
G|------------------------3--------1--2---|---------------------------------------------|
D|---------------------------------------3|---------------------------------------------|

D|------0-------0-------0-------0--------------|---------------------------------------------|
B|----0-------0-------0-------0----------------|-----------------------------------------3---|
G|---------------------------------------------|----0------------------------------------0---|
D|-3------2-------0----------------------------|----0--0--0--2----2--2--3---3--3--2------0---|
G|------------------------3--------1--2--------|---------------------------------------------|
D|---------------------------------------3-----|---------------------------------------------|

D|---------------------------------------------|---------------------------------------------|
B|-----------------------------------------3---|-----------------------------------------3---|
G|----0------------------------------------0---|----0------------------------------------0---|
D|----0--0--0--2----2--2--3---3--3--2------0---|----0--0--0--2----2--2--3---3--3--2------0---|
G|---------------------------------------------|---------------------------------------------|
D|---------------------------------------------|---------------------------------------------|

D|---------------------------------------------|---------------------------------------------|
B|-----------------------------------------3---|-----------------------------------------3---|
G|----0------------------------------------0---|----0------------------------------------0---|
D|----0--0--0--2----2--2--3---3--3--2------0---|----0--0--0--2----2--2--3---3--3--2------0---|
G|---------------------------------------------|---------------------------------------------|
D|---------------------------------------------|---------------------------------------------|

D|---------------------5-------5--5------------|---5------------------5--------5--5----------|
B|------------1-----1--5-------5--5------------|---5------------------5--------5--5----------|
G|---------------------5-------5--5------------|---5--5--5----5----------------5--5----------|
D|--0--2---------------------------------------|---------------------------------------------|
G|---------------------------------------------|---------------------------------------------|
D|---------------------------------------------|---------------------------------------------|

D|---------------------------------------------|---------------------------------------------|
B|-----------------------------------------3---|-----------------------------------------3---|
G|----0------------------------------------0---|----0------------------------------------0---|
D|----0--0--0--2----2--2--3---3--3--2------0---|----0--0--0--2----2--2--3---3--3--2------0---|
G|---------------------------------------------|---------------------------------------------|
D|---------------------------------------------|---------------------------------------------|

D|-------0--0--0--0-----0--0--0----------------|-------5-------5--5----0---------------------|
B|-------1--0--1--0-----0--0--1----------------|-------5-------5--5----0------6--6-----------|
G|-------2--2--2--2-----2--2--2----------------|-------5-------5--5----0------7--7-----------|
D|-------0--0--0-------------------------------|------------------------------8--8-----------|
G|---------------------------------------------|---------------------------------------------|
D|---------------------------------------------|---------------------------------------------|

D|----0----0-----------------------------------|---------------------------------------------|
B|----0----0--------3------3--3-------3--------|---------------------------------------------|
G|----0----0-----------------------------------|----7---7-----------7-----------7------------|
D|---------0----3----------2--2----1-----1-----|---------------------------------------------|
G|---------------------------------------------|----5---------------5-----------5------------|
D|---------------------------------------------|-------------3---5---------------------------|

D|----/12-12-12-12-12-----0---0---0--5----3--0-|
B|----/12-12-12-12-12-----0---0---0--5----3--0-|
G|----/12-12-12-12-12-----0---0---0--5----3--0-|
D|---------------------------------------------|
G|---------------------------------------------|
D|---------------------------------------------|

D|------0-------0-------0-------0--------------|----/12-12-12-12-12-----0---0---0--5----3--0-|
B|----0-------0-------0-------0----------------|----/12-12-12-12-12-----0---0---0--5----3--0-|
G|---------------------------------------------|----/12-12-12-12-12-----0---0---0--5----3--0-|
D|-3------2-------0----------------------------|---------------------------------------------|
G|------------------------3--------1--2--------|---------------------------------------------|
D|---------------------------------------3-----|---------------------------------------------|

D|------0-------0-------0-------0--------------|----/12-12-12-12-12-----0---0---0--5----3--0-|
B|----0-------0-------0-------0----------------|----/12-12-12-12-12-----0---0---0--5----3--0-|
G|---------------------------------------------|----/12-12-12-12-12-----0---0---0--5----3--0-|
D|-3------2-------0----------------------------|---------------------------------------------|
G|------------------------3--------1--2--------|---------------------------------------------|
D|---------------------------------------3-----|---------------------------------------------|

D|------0-------0-------0-------0--------------|----/12-12-12-12-12-----0---0---0--5----3--0-|
B|----0-------0-------0-------0----------------|----/12-12-12-12-12-----0---0---0--5----3--0-|
G|---------------------------------------------|----/12-12-12-12-12-----0---0---0--5----3--0-|
D|-3------2-------0----------------------------|---------------------------------------------|
G|------------------------3--------1--2--------|---------------------------------------------|
D|---------------------------------------3-----|---------------------------------------------|

D|------0-------0-------0-------0--------------|---------------------------------------------|
B|----0-------0-------0-------0----------------|-----------------------------------------3---|
G|---------------------------------------------|----0------------------------------------0---|
D|-3------2-------0----------------------------|----0--0--0--2----2--2--3---3--3--2------0---|
G|------------------------3--------1--2--------|---------------------------------------------|
D|---------------------------------------3-----|---------------------------------------------|

D|---------------------------------------------|---------------------------------------------|
B|-----------------------------------------3---|-----------------------------------------3---|
G|----0------------------------------------0---|----0------------------------------------0---|
D|----0--0--0--2----2--2--3---3--3--2------0---|----0--0--0--2----2--2--3---3--3--2------0---|
G|---------------------------------------------|---------------------------------------------|
D|---------------------------------------------|---------------------------------------------|

D|---------------------------------------------|
B|-----------------------------------------3---|
G|----0------------------------------------0---|
D|----0--0--0--2----2--2--3---3--3--2------0---|
G|---------------------------------------------|
D|---------------------------------------------|

D|---------------------5-------5--5------------|---5------------------5--------5--5----------|
B|------------1-----1--5-------5--5------------|---5------------------5--------5--5----------|
G|---------------------5-------5--5------------|---5--5--5----5----------------5--5----------|
D|--0--2---------------------------------------|---------------------------------------------|
G|---------------------------------------------|---------------------------------------------|
D|---------------------------------------------|---------------------------------------------|

D|---------------------------------------------|---------------------------------------------|
B|-----------------------------------------3---|-----------------------------------------3---|
G|----0------------------------------------0---|----0------------------------------------0---|
D|----0--0--0--2----2--2--3---3--3--2------0---|----0--0--0--2----2--2--3---3--3--2------0---|
G|---------------------------------------------|---------------------------------------------|
D|---------------------------------------------|---------------------------------------------|

D|-------0--0--0--0-----0--0--0----------------|-------5-------5--5----0---------------------|
B|-------1--0--1--0-----0--0--1----------------|-------5-------5--5----0------6--6-----------|
G|-------2--2--2--2-----2--2--2----------------|-------5-------5--5----0------7--7-----------|
D|-------0--0--0-------------------------------|------------------------------8--8-----------|
G|---------------------------------------------|---------------------------------------------|
D|---------------------------------------------|---------------------------------------------|

D|----0----0-----------------------------------|---------------------------------------------|
B|----0----0--------3------3--3-------3--------|---------------------------------------------|
G|----0----0-----------------------------------|----7---7-----------7-----------7------------|
D|---------0----3----------2--2----1-----1-----|---------------------------------------------|
G|---------------------------------------------|----5---------------5-----------5------------|
D|---------------------------------------------|-------------3---5---------------------------|

D|----/12-12-12-12-12-----0---0---0--5----3--0-|
B|----/12-12-12-12-12-----0---0---0--5----3--0-|
G|----/12-12-12-12-12-----0---0---0--5----3--0-|
D|---------------------------------------------|
G|---------------------------------------------|
D|---------------------------------------------|

D|------0-------0-------0-------0--------------|----/12-12-12-12-12-----0---0---0--5----3--0-|
B|----0-------0-------0-------0----------------|----/12-12-12-12-12-----0---0---0--5----3--0-|
G|---------------------------------------------|----/12-12-12-12-12-----0---0---0--5----3--0-|
D|-3------2-------0----------------------------|---------------------------------------------|
G|------------------------3--------1--2--------|---------------------------------------------|
D|---------------------------------------3-----|---------------------------------------------|

D|------0-------0-------0-------0--------------|----/12-12-12-12-12-----0---0---0--5----3--0-|
B|----0-------0-------0-------0----------------|----/12-12-12-12-12-----0---0---0--5----3--0-|
G|---------------------------------------------|----/12-12-12-12-12-----0---0---0--5----3--0-|
D|-3------2-------0----------------------------|---------------------------------------------|
G|------------------------3--------1--2--------|---------------------------------------------|
D|---------------------------------------3-----|---------------------------------------------|

D|------0-------0-------0-------0--------------|----/12-12-12-12-12-----0---0---0--5----3--0-|
B|----0-------0-------0-------0----------------|----/12-12-12-12-12-----0---0---0--5----3--0-|
G|---------------------------------------------|----/12-12-12-12-12-----0---0---0--5----3--0-|
D|-3------2-------0----------------------------|---------------------------------------------|
G|------------------------3--------1--2--------|---------------------------------------------|
D|---------------------------------------3-----|---------------------------------------------|

D|------0-------0-------0-------0--------------|---------------------------------------------|
B|----0-------0-------0-------0----------------|-----------------------------------------3---|
G|---------------------------------------------|----0------------------------------------0---|
D|-3------2-------0----------------------------|----0--0--0--2----2--2--3---3--3--2------0---|
G|------------------------3--------1--2--------|---------------------------------------------|
D|---------------------------------------3-----|---------------------------------------------|

Solo:
(Solo Afinação normal)

E|----6(b)-5-3---3----6(b)-5-3--3---5----------|---6(b)-5-3----3-5-7-8----9---10-------------|
B|-------------5---------------5---------------|------------5---------------------8----------|
G|---------------------------------------------|---------------------------------------------|
D|---------------------------------------------|---------------------------------------------|
A|---------------------------------------------|---------------------------------------------|
E|---------------------------------------------|---------------------------------------------|

E|---6b(8)-5-3-----3-----6(b)-5-3-0-3------7~~~|~--5-3-----3-5----5-7--10-10-12-10-----------|
B|--------------5------------------------------|--------5---------------------------8~--6B(8)|
G|---------------------------------------------|---------------------------------------------|
D|---------------------------------------------|---------------------------------------------|
A|---------------------------------------------|---------------------------------------------|
E|---------------------------------------------|---------------------------------------------|

E|---------------------------------------------|--------3------------------------------------|
B|----------8-6-----6--------------------------|1---3-------1---3~~~~~~~~----3--1------------|
G|---7B(9)-------7--7--7-6-5-3-----3-----------|--------------------------------3---0---3----|
D|------------------------------5--------------|---------------------------------------------|
A|---------------------------------------------|---------------------------------------------|
E|---------------------------------------------|---------------------------------------------|

E|-----------------------------------3--5--5---|--7(B)--------------------------------3--12--|
B|----------------3------------3--5------------|--------8--10-----------------3----5---------|
G|--------0------------------------------------|----------------9-----7---5------------------|
D|---------------------------------------------|---------------------------------------------|
A|---------------------------------------------|---------------------------------------------|
E|---------------------------------------------|---------------------------------------------|

E|----10-9-8-6-8-6-5-3-----5---3--3----3---5~~~|---------------------------------------------|
B|----------------------5------5-----5---------|-----------3-6-3-3-6-1--1--1-----------------|
G|---------------------------------------------|----5B(7)---------------3--3--3--------------|
D|---------------------------------------------|---------------------------------5--3--0-----|
A|---------------------------------------------|------------------------------------5--3-----|
E|---------------------------------------------|---------------------------------------------|

E|---------------------------------------------|---------------------------------------------|
B|-----------------------------------1--1-----/|--/3-----------------------------------------|
G|------------------------------0--3-3----3-3-/|--/4-----------------------------------------|
D|-----------------3---5--3--3--4--------------|---------------------------------------------|
A|--3--1-------5-----------5-------------------|---------------------------------------------|
E|-----3--3----6-------------------------------|---------------------------------------------|



Depois repita os riffs do refrão até a musica acabar.
reproducciones 215
Acordes para:
    Composição: Jimmy Page / Robert Johnson / Robert Plant Colaboración y revision:
    • The Roses
    • Guilherme Lima
    • Rodolfo Santos

    0 comentarios

    mostrar más comentarios

    ¿Conseguiste tocar?

    0 tocaron 0 aún no

    ¡Graba un vídeo tocando Traveling Riverside Blues y envianoslo!

    00:00 / 00:00
    outros vídeos desta música
    repetir qualidade Automático
    Outros vídeos desta música
    00:00 / 00:00
    Automático
    OK