Cifra Club

Under The Bridge

Led Zeppelin

Tablatura: Principal (guitarra)
Tom: E
|--------------------------------
|--------------------------------
|--------------------------------
|----------4-4-4--6-6-6--2-2-2---
|---2-2-2--2-2-2--4-4-4--0-0-0---
|---0-0-0------------------------
Chorus
|------------------------------
|------------------------------
|------------------------------
|---------------4-4-4----------
|---x-4-4--2-2--2-2-2--2-2-2---
|---x-2-2--0-0---------0-0-0---
Solo
|----------------------0-2/22-21b-22b 20h22--20~--9h1217p129h12p17p129h12p1512h22p8p19h16h15~---12-9
|-------3-3-5-6-1-9-0-------------------------------------------------------------------------------
|---/11---------------------------------------------------------------------------------------------
|---------------------------------------------------------------------------------------------------
|---------------------------------------------------------------------------------------------------
|---------------------------------------------------------------------------------------------------
reproducciones 189
Acordes para:
    Composição: Jon Paul Jones Colaboración y revision:
    • jvf

    0 comentarios

    mostrar más comentarios

    ¿Conseguiste tocar?

    0 tocaron 0 aún no

    ¡Graba un vídeo tocando Under The Bridge y envianoslo!

    00:00 / 00:00
    outros vídeos desta música
    repetir qualidade Automático
    Outros vídeos desta música
    00:00 / 00:00
    Automático
    OK