Cifra Club

What Is And What Should Never Be

Led Zeppelin

Tablatura: Principal (guitarra)
Tom: A
 VERSE:                                  A13
E|-|-----------------------------------|----------------------------------|
B|-|-----------------------------------|--7---7---7---7----7---7---7---7--|
G|-|-----------------------------------|--6---6---6---6----6---6---6---6--|
D|-|-----------------------------------|--5---5---5---5----5---5---5---5--|
A|-|-----------------------------------|----------------------------------|
E|-|-----------------------------------|----------------------------------|
          And if I say to you to you to mor row,

      E9                                         A13
E|-|--0---0---0---0----0---0---0---0---|----------------------------------|
B|-|--7---7---7---7----7---7---7---7---|--7---7---7---7----7---7---7---7--|
G|-|--7---7---7---7----7---7---7---7---|--6---6---6---6----6---6---6---6--|
D|-|--6---6---6---6----6---6---6---6---|--5---5---5---5----5---5---5---5--|
A|-|-----------------------------------|----------------------------------|
E|-|-----------------------------------|----------------------------------|
            take my hand child,  come   with me.

      E9                                         A13
E|-|--0---0---0---0----0---0---0---0---|----------------------------------|
B|-|--7---7---7---7----7---7---7---7---|--7---7---7---7----7---7---7---7--|
G|-|--7---7---7---7----7---7---7---7---|--6---6---6---6----6---6---6---6--|
D|-|--6---6---6---6----6---6---6---6---|--5---5---5---5----5---5---5---5--|
A|-|-----------------------------------|----------------------------------|
E|-|-----------------------------------|----------------------------------|
        It's to  a    castle  I will   take you,

      E9                                  A13
E|-|--0---0---0---0----0---0---0---0---|----------------------------------|
B|-|--7---7---7---7----7---7---7---7---|--7---7---7---7----7---7---7---7--|
G|-|--7---7---7---7----7---7---7---7---|--6---6---6---6----6---6---6---6--|
D|-|--6---6---6---6----6---6---6---6---|--5---5---5---5----5---5---5---5--|
A|-|-----------------------------------|----------------------------------|
E|-|-----------------------------------|----------------------------------|
       Well what's to be , they say will be.


CHORUS: (heavy with distortion)
E|---------------------------------|----------------2-------------------------
B|---------------------------------|----------------3--2----------------------
G|---------------------------------|-------------2--2--2----------------------
D|----5h7---7-7-7p5---5--5--5------|-4--4---4----2--4--2----------------------
A|----0-----0---------0--0----0--0-|-0--0-0----0-0-----0--0-------------------
E|---------------------------------|------------------------------------------

E|---------------------------------|----------------2-------------------------
B|---------------------------------|----------------3--2--2-------------------
G|---------------------------------|-------------2--2--2--2-------------------
D|----7---7---7p5-----5-------5----|-4-4-4-4---2-2-----2--2-------------------
A|----0---0-0---------0--0-0----0--|-0-0-0-0---0-0-----0--0-------------------
E|-----------------3---------------|----------------------0-------------------

E|-----------------------------|
B|-4-4-4-4---------------------|
G|-4-4-4-4----4---4---4---4----|
D|-4-4-4-4----4---4---4---4----|
A|-2-2-2-2--0---0---0---0------|
E|-----------------------------|
                                           let ring
E|-----------------------0-------------|--------|-----------------
B|-----------------------0---4--2------|--2-----|-----------------
G|-----4---4---4----4----1---4--3------|--2-----|-----------------
D|-----4---4---4----4----2---4--4------|--2-----|-----------------
A|-----------------------2---2--4------|--0-----|--2--------------
E|---4---4---4----4------0------2------|------3b|--0--------------
                                         1/2 step

Catch the wind, see us spin, sail-away
Leave the day, way up high in the sky
Hey whoa,
But the wind won't blow, you really shouldn't go,  it only goes to show,
That you will be mine by taking our time.
Oooh Ho whoa.

VERSE:
And if you say to me tomorrow,
Oh what fun it all would be.
Then what's to
Stop us pretty baby,
But what is and what should never be.

CHORUS

SOLO: (with slide)
E|-------------------------|--------|-------------------|---------------------
B|-------------------------|--------|------5--7s9--7s9--|--7s2----------------
G|----------9--9s13--11s13-|--11s6--|--4-6----7s9--7s9--|--7s2----------------
D|---9--11-----------------|--------|-------------------|---------------------
A|-------------------------|--------|-------------------|---------------------
E|-------------------------|--------|-------------------|---------------------

E|---------12---10-12-10---------------|--------------------------------------
B|---7s12----------------10s12---10s12-|-10s12s14-------12--------------------
G|-------------------------------------|--------------------------------------
D|-------------------------------------|--------------------------------------
A|-------------------------------------|--------------------------------------
E|-------------------------------------|--------------------------------------

E|--14s16--10s12-----------------------|--------------------------------------
B|----------------10s12---10-8-10------|--10s14-------------------------------
G|-------------------------------------|--------------------------------------
D|-------------------------------------|--------------------------------------
A|-------------------------------------|--------------------------------------
E|-------------------------------------|--------------------------------------

E|----------------------------------------|-----------------------------------
B|-------14-------14------------14--14----|------14-14-14----14---------------
G|--------------------------14------------|----------------------------14-----
D|--7s14----14-14------5s14--------------7s14-14----------14------12---14-----
A|----------------------------------------|-----------------------12----------
E|----------------------------------------|-----------------------------------

E|----------------------------------------|-----------------------------------
B|-------14-------14------------14--14----|------14-14-14----14---------------
G|--------------------------14------------|----------------------------14-----
D|--7s14----14-14------5s14--------------7s14-14----------14------12---14-----
A|----------------------------------------|-----------------------12----------
E|----------------------------------------|-----------------------------------

E|----------------------------------------|-------------------7---------------
B|----------16----16-------------16--16---|------16-16-16--9--7---------------
G|-------16----16----16-------16----------|---16-----------9------------------
D|--9s16-----------------9s16-----------7s|16---------------------------------
A|----------------------------------------|-----------------------------------
E|----------------------------------------|-----------------------------------

E|----------------------|-----------------------------------|-------|---|----
B|--14s17-16-14---------|--14s12s14--14s12s14--12s14--12s14-|12s9s7s|sss|s2--
G|------------------14--|-----------------------------------|-----7s|sss|s2--
D|---------------14-----|-----------------------------------|-----7s|sss|s2--
A|----------------------|-----------------------------------|-------|---|----
E|----------------------|-----------------------------------|-------|---|----

VERSE:
So if you wake up with the sunrise,
And all your dreams are still as new,
And happiness is what you need so bad,
Well girl the answer lies with you yeah

CHORUS

OUTRO:(with ad lib vocals)
E|-----------------|-----------------------------------------------------------
B|------------9-9--|---------------9-9-9-9-------------------------------------
G|------------9-9--|----7---7-7----9-9-9-9-------------------------------------
D|---9-9------9-11-|--7-7---7-9----9-9-9-9-------------------------------------
A|---9-11-----0----|--7-9---0------7-7-7-7-------------------------------------
E|-----------------|---------------0-0-0-0-------------------------------------

Uh, but a the wind wont blow and we really shouldn't go,
And it only goes to show,
whoa, whoa whoa.
Catch the wind gonna see us spin
we're gonna sail, little girl


Say leave the day.
A do be do ba da 'n' do oh.
My my my my my yeah.

Everybody I know seems to know me well,
But they say I'm gonna move like
Hell.
Uh baby, baby, baby, baby, baby, baby ....
reproducciones 272
Acordes para:
    Composição: Jimmy Page / Robert Plant Colaboración y revision:
    • Jander Nikolaus

    0 comentarios

    mostrar más comentarios

    ¿Conseguiste tocar?

    3 tocaron 0 aún no

    ¡Graba un vídeo tocando What Is And What Should Never Be y envianoslo!

    00:00 / 00:00
    outros vídeos desta música
    repetir qualidade Automático
    Outros vídeos desta música
    00:00 / 00:00
    Automático
    OK