Cifra Club

Whole Lotta Love Ver. Exclusiva

Led Zeppelin

Tablatura: Principal (guitarra)
Tom: A
E|--------|----------------|----------------|----------------|----------------| 
B|--------|----------------|----------------|----------------|----------------| 
G|--------|----------------|----------------|----------------|----------------| 
D|--------|9---9---9---9---|9---9---99------|9---9---9---9---|9---9---99------| 
A|---5--5-|7---7---7---7---|7---7---77-5--5-|7---7---7---7---|7---7---77-5--5-| 
E|--7--7--|0000000000000000|00000000007--7--|0000000000000000|00000000007--7--| 
You need 
 
E|----------------|----------------|----------------| 
B|----------------|----------------|----------------| 
G|----------------|----------------|----------------| 
D|9---9---99------|9---9---99------|9---9---99------| 
A|7---7---77-5--5-|7---7---77-5--5-|7---7---77-5--5-| 
E|00000000007--7--|00000000007--7--|00000000007--7--| 
coolin' baby I'm not foolin' 
learnin' baby I mean learnin' 
 
E|----------------|----------------|----------------| 
B|----------------|----------------|----------------| 
G|----------------|----------------|----------------| 
D|9---9---99------|9---9---99------|9---9---99------| 
A|7---7---77-5--5-|7---7---77-5--5-|7---7---77-5--5-| 
E|00000000007--7--|00000000007--7--|00000000007--7--| 
schoolin' 
been yearnin' 
 
E|----------------|----------------|----------------| 
B|----------------|----------------|---------777-7-7| 
G|----------------|----------------|---------777-7-7| 
D|9---9---99------|9---9---99------|9---9---9777-7-7| 
A|7---7---77-5--5-|7---7---77-5--5-|7---7---7555-5-5| 
E|00000000007--7--|00000000007--7--|000000000-------| 
I'm gonna give you my love        Oh       Wanna whole lotta love 
 
E|----------------|----------------|----------------| 
B|---------777-7-7|---------777-7-7|---------777-7-7| 
G|---------777-7-7|---------777-7-7|---------777-7-7| 
D|9---9---9777-7-7|9---9---9777-7-7|9---9---9777-7-7| 
A|7---7---7555-5-5|7---7---7555-5-5|7---7---7555-5-5| 
E|000000000-------|000000000-------|000000000-------| 
Wanna...         Wanna...         Wanna... 
___________________ _________________ 
1.                 |2.               | 
E|---------------- ||----------------|----------------| 
B|---------------- ||----------------|----------------| 
G|----------------o||----------------|----------------| 
D|9---9---99------o||9---------------|9---------------| 
A|7---7---77-5--5- ||7---------------|7---------------| 
E|00000000007--7-- ||----------------|----------------| 
 
E|----------------| 
B|----------------| 
G|---Theremin-----| 
D|-----Break------| 
A|------37--------| 
E|----------------| 
 
E|----------------|----------------|----------------| 
B|----------------|----------------|----------------| 
G|9--9------------|9--9------------|9--9------------| 
D|9--9------------|9--9------------|9--9------------| 
A|7--7------------|7--7------------|7--7------------| 
E|----------------|----------------|----------------| 
|                                                  | 
|                                                  | 
E|-------12-------|----------------|-------12----15-| 
B|------12-1512---|----------------|------12-1515-15| 
G|-----14-----1514|-------7765-----|-----14---------| 
D|----------------|-----9----765---|----------------| 
A|----------------|------------575-|----------------| 
E|----------------|---------------7|0---------------| 
 
E|----------------|----------------|----------------| 
B|----------------|----------------|----------------| 
G|9--9------------|9--9------------|9--9------------| 
D|9--9------------|9--9------------|9--9------------| 
A|7--7------------|7--7------------|7--7-------5--5-| 
E|----------------|----------------|----------7--7--| 
|                                                  | 
|                                                  | 
E|----151715---15-|-----19191815---|------------19--| 
B|---17-----171517|----17------17--|----17191919---17 
G|----------------|----------------|----------------| 
D|----------------|----------------|----------------| 
A|----------------|----------------|----------------| 
E|----------------|----------------|----------------| 
 
E|----------------|----------------|----------------| 
B|----------------|----------------|----------------| 
G|----------------|----------------|----------------| 
D|9---9---99------|9---9---99------|9---9---99------| 
A|7---7---77-5--5-|7---7---77-5--5-|7---7---77-5--5-| 
E|00000000007--7--|00000000007--7--|00000000007--7--| 
coolin' baby I've been droolin'   All the good times... 
 
E|----------------|----------------|----------------| 
B|----------------|----------------|----------------| 
G|----------------|----------------|----------------| 
D|9---9---99------|9---9---99------|9---9---99------| 
A|7---7---77-5--5-|7---7---77-5--5-|7---7---77-5--5-| 
E|00000000007--7--|00000000007--7--|00000000007--7--| 
misusin'         Way down inside 
 
E|----------------|----------------|----------------| 
B|----------------|----------------|----------------| 
G|----------------|----------------|----------------| 
D|9---9---99------|9---9---99------|9---9---99------| 
A|7---7---77-5--5-|7---7---77-5--5-|7---7---77-5--5-| 
E|00000000007--7--|00000000007--7--|00000000007--7--| 
I'm gona give....                 Hey 
 
E|----------------|----------------|----------------|----------------| 
B|----------------|---------777-7-7|---------777-7-7|---------777-7-7| 
G|----------------|---------777-7-7|---------777-7-7|---------777-7-7| 
D|9---9---99------|9---9---9777-7-7|9---9---9777-7-7|9---9---9777-7-7| 
A|7---7---77-5--5-|7---7---7555-5-5|7---7---7555-5-5|7---7---7555-5-5| 
E|00000000007--7--|000000000-------|000000000-------|000000000-------| 
Wanna...         Wanna...         Wanna... 
 
E|----------------|----------------||----------------|----------------| 
B|---------777-7-7|9---------------||----------------|----------------| 
G|---------777-7-7|9---------------||----------------|----------------| 
D|9---9---9777-7-7|9---------------||----------------|----------------| 
A|7---7---7555-5-5|7---------------||----------------|----------------| 
E|000000000-------|----------------||----------------|----------------| 
Way down        inside___________ 
 
E|----------------|----------------|----------------|----------------| 
B|----------------|----------------|9---------------|----------------| 
G|----------------|----------------|9---6-----------|----------------| 
D|----------------|----------------|9---7-----------|----------------| 
A|----------------|----------------|7---7-----------|----------------| 
E|----------------|----------------|----5-----------|----------------| 
woman            you___need_ yeah                  love____________ 
 
E|----------------|----------------| 
B|----------------|----------------| 
G|----------------|----------------| 
D|----------------|----------------| 
A|----------------|-----------5--5-| 
E|----------------|----------7--7--| 
 
 
E|----------------|----------------|----------------| 
B|----------------|----------------|----------------| 
G|----------------|----------------|----------------| 
D|9---9---99------|9---9---99------|9---9---99------| 
A|7---7---77-5--5-|7---7---77-5--5-|7---7---77-5--5-| 
E|00000000007--7--|00000000007--7--|00000000007--7--| 8X then fade 


 D E    D E    D             E      D                   E
                   You need coolin,      baby, I`m not foolin`.
D                       E    D                E
    I`m gonna say it, yeah,     go back to schoolin`.
D E                        D E
       Way down inside,       honey, you need it,
D E                                 D E                              D E
     I`m gonna give you my love,       I`m gonna give you my love.
D                       E     D                        E
     Wanna whole lotta love,       wanna whole lotta love,  
D                       E      D                       E
     wanna whole lotta love,        wanna whole lotta love.

      D            E       D                    E
     You`ve been learnin`,     baby, I`ve been burning.
  D             E           D                    E
      All them good times,      baby, I`ve been yearnin`.
D E                       D E
      Way down inside,        honey, you need it,
D E                                   D E
       I`m gonna give you my love,       I`m gonna give you my love.

DE REFRAIN  + (drums passage, improvise on DE) + Ex 6

   D              E       D                     E
     You`ve been coolin`,     baby, I`ve been droolin`.
D             E           D               E
    And them good times,     I`ve been misusing.
D E                        D E
      Way, down inside,       I`m gonna give you my love,
D E                                D E
    I`m gonna give you my love,        I`m gonna give you my love,
D E                                D E                              D E
    I`m gonna give you my love        I`m gonna give you my love.    
               E... D.. E   E..   D.. E     E A
 + REFRAIN  + Way down inside woman, you need ............... love.
D E                               D                       E    -D E
       
reproducciones 469
Acordes para:
    Colaboración y revision:
    • Marcelo Santana
    • leonardo filgueiras

    0 comentarios

    mostrar más comentarios

    ¿Conseguiste tocar?

    1 tocaron 0 aún no

    ¡Graba un vídeo tocando Whole Lotta Love Ver. Exclusiva y envianoslo!

    00:00 / 00:00
    outros vídeos desta música
    repetir qualidade Automático
    Outros vídeos desta música
    00:00 / 00:00
    Automático
    OK